Your One-Stop Source For
Music Lyrics
Bass and Guitar Tabs
and More...
>Music Lyrics Bass and Guitar Tabs

 

The Tabs Are Below

Learn To Read Tab
Chords Handbook
Corrections & Additions
Get Official Tab
3EB tabs @ 911Tabs

 

#----------------------------------PLEASE NOTE--------------------------------#

#This file is the author's own work and represents their interpretation of the#

#song. You may only use this file for private study, scholarship, or research.#

#-----------------------------------------------------------------------------#

#-- File created with Instab - http://www.pconline.com/~smcarey/instab.html --#

#-----------------------------------------------------------------------------#

 

Tuning:Droppped D *DADGBE*

 

Intro (distorted)

-0-----|-------------------------------|-0-------|----------------------------

-10----|-------------------------------|-x-------|----------------------------

-11----|-----10--10--9--9--------------|-10------|----10-10--9--9---9---9--9--

-12----|--8--8---8---8--8---10--10-x-x-|-10------|-8--8--8---8--10--10--10-10-

-x-----|--8--8---8---8--8---8---8--x-x-|-8-------|-8--8--8---8--8---8---8--8--

-12----|--8--8---8---8--8---8---8--x-x-|---------|-8--8--8---8--8---8---8--8--

x 8 x 8

 

 

Verse (Clean)

-0-----|------------10---10--10--10--10|-8-------|----------------------------

-10----|--------10--10---10--10--10--10|-8-------|----------------------------

-11----|----10--10--10---10--10--10--10|-10------|----10-10-9--9---9----9--9--

-12----|----8---8---8----8---8---8---8-|-10------|-8--8--8--8--10--10---10-10-

-------|--8----------------------------|-8-------|-8--8--8--8--8---8----8--8--

-------|-------------------------------|---------|-8--8--8--8--8---8----8--8--

x8 x8

 

------------------------0--0--0--0--0--0-0------------------------------------

------------------------------8--10-8--7--------------------------------------

------------------------------------------------------------------------------

------------------------------------------------------------------------------

------------------------------------------------------------------------------

------------------------------------------------------------------------------

close to the pierce..

 

Prechorus

-----------------------------------------------------------------------------

-10--10--13------17--17--13---------------------------------------------------

-12--12--12--12--14--14--14---------------------------------------------------

------------------------------------------------------------------------------

------------------------------------------------------------------------------

------------------------------------------------------------------------------

Inside I feel.. (repeat)

 

For Chorus repeat intro chords with distortion

 

Interlude

--------------|--------------------|------------------------------------------

--------------|--------------------|------------------------------------------

--------------|--------------------|------------------------------------------

-10-10-12--3--|-10-10-12--3--8--8--|------------------------------------------

-10-10-12--3--|-10-10-12--3--8--8--|------------------------------------------

-10-10-12--3--|-10-10-12--3--8--8--|------------------------------------------

C C D F C C D F Bb Bb repeat once then

 

------------------------------------------------------------------------------

-----10-----------10------------10-----------10----------10---------10--------

--12----12-----12----12-----12------12----12----12---12------12--12----12-----

------------------------------------------------------------------------------

------------------------------------------------------------------------------

------------------------------------------------------------------------------

play this with above chords then play prechorus figure for lead break

 

Repeat Chorus a few times til this comes in with Chorus chords and vocal..

 

--------------------------|----------------------------|----------------------

--------------------------|----------------------------|----------------------

--11b12r11b12r11b12r11----|-------9b10r9b10r9b10r9-----|-----9b10r9b10r9------

-----------------------12-|-12---------------------10--|-10--------------10---

--------------------------|----------------------------|----------------------

--------------------------|----------------------------|----------------------

 

 

--------------|-/12-----14b15r14b15----14----|------------------------9\8-|---

--------------|----------------------0-------|----------------------------|---

--------------|-----14--------------------14-|--14---14\9-9b10r9b10r9-----|---

-10b12bbbbb---|------------------------------|----------------------------|12-

--------------|------------------------------|----------------------------|12-

--------------|------------------------------|----------------------------|12-

gradual bend End on

 

 

 

 

 

Return to my to my TEB tabs page

The Tablature is Copyright its respective owners.

Sign Up For My Newsletter
Subscribe | Unsubscribe

Site Map | Disclaimer | Privacy Policy | Media Kit | Submissions/Corrections

Website © 2000-2014 mattsmusicpage.com. All rights reserved.

Legal & DMCA: Matt's Music Page has been providing lyrics and tabs in a legal way, paying royalties each year to a few organizations. Then, all lyrics and tabs were removed from the site. Now, there's a new owner to the site, which purchased it August 26, 2014, and he is in negotiation to obtain licensing from BMI at the moment. If you have a specific DMCA request -- please do not hesitate to contact me via the contact button on top. I will do my very best to keep this site fully legal.

Get our toolbar!

 

Hard Rock Pin Las Vegas 4th of july red white and blue guitar
$5.0
Hard Rock Pin Las Vegas 4th of july red white and blue guitar picture


Hard Rock Pin Hollywood Fl Bell Girl with dice luggage and guitar
$5.0
Hard Rock Pin Hollywood Fl Bell Girl with dice luggage and guitar picture


Hard Rock Pin Las Vegas King of Clubs Guitar rare only 3 lines of info on back
$5.0
Hard Rock Pin Las Vegas King of Clubs Guitar rare only 3 lines of info on back picture


Hard Rock Pin Edmonton guitar pin
$5.0
Hard Rock Pin Edmonton guitar pin picture


Lladro Guitar Boy #4614 - Beautiful Piece of Lladro
$109.0
Lladro Guitar Boy #4614 - Beautiful Piece of Lladro picture