Your One-Stop Source For
Music Lyrics
Bass and Guitar Tabs
and More...
Music Lyrics Bass and Guitar Tabs

 

The Tabs Are Below

Learn To Read Tab
Chords Handbook
Corrections & Additions
Get Official Tab
3EB tabs @ 911Tabs

 

#----------------------------------PLEASE NOTE--------------------------------#

#This file is the author's own work and represents their interpretation of the#

#song. You may only use this file for private study, scholarship, or research.#

#-----------------------------------------------------------------------------#

#-- File created with Instab - http://www.pconline.com/~smcarey/instab.html --#

#-----------------------------------------------------------------------------#

God Of Wine

Tuning: Open Dsus2 *DADEAD*

 

Intro/Verse *clean*

-------------------------|-------------------------|---------------------0----

---------7--7--0--0------|---------2--2--0--0------|--------0-------0h4----4--

-----0---------------0---|---0--0--------------0---|-----------0--------------

-----7-----------------0-|---2--2----------------0-|-----4-------4------------

-------------------------|-------------------------|--------------------------

--7----------------------|-2-----------------------|-/4-----------------------

 

 

---------|-----------7---7---0--------|---------------------------------------

----0----|-----------7----------0-----|---------------------------------------

------0--|-----0--0----------------0--|---------------------------------------

--4------|-----7--7-------------------|---------------------------------------

---------|----------------------------|---------------------------------------

---------|-/7-------------------------|---------------------------------------

 

Prechorus *w/ dist.*

---------------0---|-0--------------0--------0--|---------0-------------------

-----------7---0---|-0--------------0--7b8r7-0--|---------0-------2-2b3r2-0---

----0---0--0-------|-0--------------0-----------|---------0-------------------

----7---7--7-------|-77-7--77-7--7--7-----------|-2-2-2-2-2-2-2-2-------------

-------------------|-77-7--77-7--7--7-----------|-2-2-2-2-2-2-2-2-------------

--7----------------|-77-7--77-7--7--7-----------|-2-2-2-2-2-2-2-2-------------

 

 

----------------------------|-0--------------0--------0--|

----------4-4-4-4--4b5r4-0--|-0--------------0--7b8r7-0--|

----------------------------|-0--------------0-----------|

--4-4-4-4-4-4-4-4-----------|-77-7--77-7--7--7-----------|

--4-4-4-4-4-4-4-4-----------|-77-7--77-7--7--7-----------|

--4-4-4-4-4-4-4-4-----------|-77-7--77-7--7--7-----------|repeat until chorus

 

Chorus

---------|-------------------------------------|-------0---------0------------

---------|-------------------------------------|-------0---------0------------

---------|--14--14--14-------------------10-9--|-------0---------0------------

--12-----|--12--12--12---12---------7-7--7--7--|-2--2--2---2--2--2------------

--12-----|--12--12--12---12---------7-7--7--7--|-2--2--2---2--2--2------------

--12-----|--12--12--12---12---------7-7--7--7--|-2--2--2---2--2--2------------

x8 I cant keep it all together ....... siren's song that is your...

 

------------------------------|---------------------------------------|-------

------------------------------|---------------------------------------|0h7p0--

------------------------------|---------------------------------------|-------

--4---4--4---4---4---4--4--4--|-4-------------------------------------|-------

--4---4--4---4---4---4--4--4--|-4-------------------------------------|-------

--4---4--4---4---4---4--4--4--|-4-------------------------------------|-------

truth i cant ............... let ring, slide into verse and repeat this

 

Outro *w/ dist.*

------------------------------------------------------------------------------

-0h7p0-0h7p0------------------------------------------------------------------

------------------------------------------------------------------------------

------------------------------------------------------------------------------

------------------------------------------------------------------------------

------------------------------------------------------------------------------

repeat endlessly

 

 

 

Return to my to my TEB tabs page

The Tablature is Copyright its respective owners.

Sign Up For My Newsletter
Subscribe | Unsubscribe

Site Map | Disclaimer | Privacy Policy | Media Kit | Submissions/Corrections

Website © 2000-2014 mattsmusicpage.com. All rights reserved.

Legal & DMCA: Matt's Music Page has been providing lyrics and tabs in a legal way, paying royalties each year to a few organizations. Then, all lyrics and tabs were removed from the site. Now, there's a new owner to the site, which purchased it August 26, 2014, and he is in negotiation to obtain licensing from BMI at the moment. If you have a specific DMCA request -- please do not hesitate to contact me via the contact button on top. I will do my very best to keep this site fully legal.

Get our toolbar!

 

Starbucks You Are Here Coffee Mug/Cup KENTUCKY - Horses, Banjo, Blue, White
$19.99
Starbucks You Are Here Coffee Mug/Cup KENTUCKY - Horses, Banjo, Blue, White picture


KNOWLES ROCKWELL HERITAGE "THE BANJO PLAYER" FIRST EDITION 1989 PLATE COA
$5.99
KNOWLES ROCKWELL HERITAGE


Vintage Postcard 1981 Disney World Banjo Kings Main Street USA 1981 Postmark
$4.99
 Vintage Postcard 1981 Disney World Banjo Kings Main Street USA 1981 Postmark picture


Banjo Barometer With Thermometer Hygrometer 490mm
$84.76
Banjo Barometer With Thermometer Hygrometer 490mm picture


ANTIQUE JAPANESE NIPPON FIGURINE SET OF 3 WOMEN GEISHA PLAYING DRUM BANJO FAN
$24.0
ANTIQUE JAPANESE NIPPON FIGURINE SET OF 3 WOMEN GEISHA PLAYING DRUM BANJO FAN picture