Your One-Stop Source For
Music Lyrics
Bass and Guitar Tabs
and More...
Music Lyrics Bass and Guitar Tabs

 

The Tabs Are Below

Learn To Read Tab
Chords Handbook
Corrections & Additions
Get Official Tab
3EB tabs @ 911Tabs

 

Author/Artist: Third Eye Blind

Title: Darwin

Album: Blue

Transcribed by: Dave

Email: strike@ucky.com

 

This is my first time writhing tab, so this may

be a little wrong but I had fun doing it

 

(INTRO)

g --------------------------------|

d --------------------------------| (play 2x)

a -2-4----------------------------|

e -----4---0---5------0-----------|

 

 

 

 

CHORUS

g --------------------------------|

d --------------------------------| (play 8x)

a ---------------4-2--------------|

e -4---0---5-----------0----------|

 

The chromosomes divide, ...

 

 

 

 

VERSE

g --------------------------------|

d --------------------------------|

a --------------------------------|

e -----3-5--3--0------------------|

 

g --------------------------------|

d --------------------------------| (2x During Verse)

a --------------------------------|

e -----3-5--3--0------------------|

 

g --------------------------------|

d --------------------------------|

a -----5--7-----------------------|

e -------------3--0---------------|

 

(BRIDGE)

g --------------------------------|

d --------------------------------| (occasional)

a --------------------------------|

e -----4--0-----------------------|

 

 

(OUTRO)

g --------------------------------|

d --------------------------------| (play 8x 'til end)

a -2-4----------------------------|

e -----4---0---5------0-----------|

 

Played In Order:

INTRO

CHORUS

VERSE

CHORUS

VERSE

CHORUS

BRIDGE

CHORUS

VERSE

OUTRO

 

And it's alright,

It's a long night,

a long night,

It's a long night...

 

 

Return to my to my TEB tabs page

The Tablature is Copyright its respective owners.

Sign Up For My Newsletter
Subscribe | Unsubscribe

Site Map | Disclaimer | Privacy Policy | Media Kit | Submissions/Corrections

Website © 2000-2014 mattsmusicpage.com. All rights reserved.

Legal & DMCA: Matt's Music Page has been providing lyrics and tabs in a legal way, paying royalties each year to a few organizations. Then, all lyrics and tabs were removed from the site. Now, there's a new owner to the site, which purchased it August 26, 2014, and he is in negotiation to obtain licensing from BMI at the moment. If you have a specific DMCA request -- please do not hesitate to contact me via the contact button on top. I will do my very best to keep this site fully legal.

Get our toolbar!