Your One-Stop Source For
Music Lyrics
Bass and Guitar Tabs
and More...
Music Lyrics Bass and Guitar Tabs

 

The Tabs Are Below

Learn To Read Tab
Chords Handbook
Corrections & Additions
Get Official Tab
3EB tabs @ 911Tabs

Song: God of Wine (Bass)

Artist: third eye blind

Album: third eye blind

Tabbed by: Kye Forrester the_truth_uk2002@yahoo.co.uk

 

 

---------------|-------------|------------|------------|-----------|----------

------7--------|-------------|------------|------------|-----------|----------

---------------|-------------|------------|------------|-----------|----------

--5-5----------|-0-0-------0-|-2-2------/-|-5-5------00|-5-5-------|-0-0----0-

 

 

---|--------------|--------------|---------------|--------------|-------------

---|--------------|--------------|---------------|--------------|---------7---

---|--------------|--------------|---------------|--------------|-----5-7-----

---|-2-2------2-/-|-5-5----5-\---|-0-0----0-0----|-2-2----2-2---|-5-7---------

 

 

--|-----------------|-----------------|-----------------|----------------|----

--|-----------------|-----------------|-----------------|----------------|----

--|-----------------|-----------------|-----------------|----------------|----

--|-5-5---5-5-5-5-5-|-0-0-0-0-0-0-0-0-|-2-2---2-2-2-2-2-|-5-5---5-5-5\00/|-5--

 

 

-------------|----------------|---------------|-----------------|-------------

-------------|----------------|---------------|-----------------|*------------

-------------|----------------|---------------|-----------------|*------------

-5-5---5-5-5-|-0-0--0--0-0-0-/|-2--------2--/-|-5---5-5---5-5---|--10-10-10---

 

 

-------------------|------------------------|--------------|--------------|---

-------------------|------------------------|--------------|-------------*|---

-------------------|------------------------|--------------|-------------*|---

-10-10-10-10-10-10-|-10-10-10-10-10-10-10-\-|-5-5---5-5-\--|-5-5---5-5-\--|---

 

 

-----------------|-----------------|-----------------|----------|--------|----

-----------------|-----------------|-----------------|----------|--------|----

-----------------|-----------------|-----------------|----------|--------|----

-0-0-0-0-0-0-0-0-|-0-0-0-0-0-0-0-0-|-2-2-2-2-2-2-2-2-|-2-------/|5---/---|-0--

 

 

-----|------------|-------------|-----------|----------|-----------|----------

-----|------------|-------------|-----------|----------|-----4-----|----------

-----|------------|-------------|-----------|----------|-----------|----------

-----|-2-2-----2--|-5-5---5-5-0/|-5-5-5----\|-0-0---0-/|-2-2-------|-5-5------

 

 

---------|-------------|---------------|------------|-------------|-----------

---------|-------------|---------------|-----4-----/|-------------|-----------

---------|-------------|---------------|------------|-------------|-----------

-5-5-/---|-5-5-5----\--|-0-0-----0-0--/|-2-2-------/|-5-5---5-5-0-|-5-5-5-----

 

 

---------|-------------|-----------------|------------------|-----------------

---------|----2-----2--|-----------------|------------------|-----------------

---------|-------------|-----------------|------------------|-----------------

-5-5-5-5-|-0----0-0----|-2-2-2---2-2-2-2-|-5-5-5--/17\--5-5-|-10-10-10-10-10--

 

 

----------|-------------------------|--------------|--------------|-----------

----------|-------------------------|--------------|--------------|-----------

----------|-------------------------|--------------|--------------|-----------

-10-10-10-|-10-10-10-10-10-10-10-10-|-5-5---5-5-\--|-5-5---5-5-\--|-10-10-10--

 

 

----------------|----------------------------|--------------|--------------|--

----------------|-------12----------12-------|--------------|--------------|--

----------------|----------------------------|--------------|--------------|--

-10-10-10-10-10-|-10-10----10-10-10----10-10-|-5-5---5-5-\--|-5-5---5-5-/--|--

 

 

-----------------|-----------------|-----------------|-----------------|------

-----2-------2---|-----------------|-----------------|-----------------|------

-----------------|-----------------|-----------------|-----------------|------

-0-0---0-0-0---0-|-0-0-0-0-0-0-0-0-|-2-2-2-2-2-2-2-2-|-2-2-2-2-2-2-2-2-|-0-0--

 

 

-------------|-----------------|-----------------|--------------|-------------

-2-------2---|-----------------|-----------------|--------------|-------------

-------------|-----------------|-----------------|--------------|-------------

---0-0-0---0-|-0-0-0-0-0-0-0-0-|-2-2-2-2-2-2-2-2-|-2-2-/--------|-5-5----5-5--

 

 

--|------------------|----------------|--------------|--------------|---------

--|------------------|----------------|--------------|--------------|-----7---

--|------------------|----------------|--------------|--------------|---------

--|-5-5-----5-5--x0/-|-5-5----5-5--0/-|-5-5----5-5---|-5-5----5-5---|-5-5-----

 

 

------------|----------------|----------------|

-\----------|-----7----------|-------6-7------|

------------|----------------|----------------|

----5-5-xx0/|-5-5----5-5--\0-|-5-5------------|

 

play it soft

 

enjoi

 

 

Return to my to my TEB bass tabs page

The Tablature is Copyright its respective owners.

Sign Up For My Newsletter
Subscribe | Unsubscribe

Site Map | Disclaimer | Privacy Policy | Media Kit | Submissions/Corrections

Website © 2000-2014 mattsmusicpage.com. All rights reserved.

Legal & DMCA: Matt's Music Page has been providing lyrics and tabs in a legal way, paying royalties each year to a few organizations. Then, all lyrics and tabs were removed from the site. Now, there's a new owner to the site, which purchased it August 26, 2014, and he is in negotiation to obtain licensing from BMI at the moment. If you have a specific DMCA request -- please do not hesitate to contact me via the contact button on top. I will do my very best to keep this site fully legal.

Get our toolbar!