Your One-Stop Source For
Music Lyrics
Bass and Guitar Tabs
and More...
Music Lyrics Bass and Guitar Tabs

 

The Tabs Are Below

Learn To Read Tab
Chords Handbook
Corrections & Additions
Get Official Tab
3EB tabs @ 911Tabs

Album: Out of the Vein

Artist: Third Eye Blind

song: Crystal Baller

Author: Melanie (princess_cateyes100@hotmail.com)

 

Well guys I finally got my lazy ass to tab this song. It's really fun to play

and wasn't too difficult to tab. This is my very first published tab if you

will so I'm not an expert. You have to listen to get the rhythms because I don't

particularly know how to express them in a tab and I know I missed some notes,

but I tried my best and that?s all you have to know. I am open for suggestions,

corrections, etc. So enjoy!

 

Rest at guitar intro...

 

Chorus @ 0:38 " Can we try and take the high road..."

------------------|------------------|------------------|---------------------

------------------|------------------|------------------|---------------------

-----------3------|------------------|------------------|---------------------

-1111-5555---33-33|-1111-5555-h3-3-33|-1111-5555-3-33-33|-1111-5555-h3-3-3-3--

 

Verse@0:59 "Macrame-queens..."

----------------------------|-------------------------------------------------

----------------------------|-------------------------------------------------

-8-33-0h5-33-8-10-33--------|-8-33-0h5-33-8-33--------------------------------

---------------------3-0h3h3|------------------3------------------------------

 

Chorus #2 @ 1:21 (x3) @1:51

-----------------|-----------------|---------------------|--------------------

-----------------|-----------------|---------------------|--------------------

-----------------|----------3------|----------------2-0-3|----------3---------

-1111-5555-h3-3-3|1111-5555---33-33|-1111-5555-h3-3------|1111-5555---h3-3-33-

 

Bridge 1 @ 2:01 " I wonder what..."

------------------------|-----------------------------------------------------

------------------------|-----------------------------------------------------

------------------------|-----------------------------------------------------

-11-31-11-33-11-33-11-33|-----------------------------------------------------

 

Bridge 2 @ 2:11 "In the moment..."

-------------------------------|----------------------------------------------

-------------------------------|----------------------------------------------

-------------------------------|----------------------------------------------

-55-h1-1-h5-5--h1-1--h5-5--h1-1|----------------------------------------------

 

Verse

 

Bass solo @ 2:29 "I dream the lives..." (let notes ring)

---------------|-------------------|------------------------------------------

---------------|-------------------|------------------------------------------

-8-3-5-3-8-3---|-8-3-5-3-8/10\3/5--|------------------------------------------

-------------3-|------------------3|------------------------------------------

 

Chorus #2(x2) @ 2:51

 

Outro @ 3:31 (x4) (x3) (x1)

----------------------|--------------------|----------------------------------

----------------------|--------------------|----------------------------------

----------------------|--------------------|----------------------------------

-1111-5555-3333-3333-3|-1-1-5-5-3333-3333-3|-1-1-5-5-3333-3333-10\1-----------

 

Return to my to my TEB bass tabs page

The Tablature is Copyright its respective owners.

Sign Up For My Newsletter
Subscribe | Unsubscribe

Site Map | Disclaimer | Privacy Policy | Media Kit | Submissions/Corrections

Website © 2000-2014 mattsmusicpage.com. All rights reserved.

Legal & DMCA: Matt's Music Page has been providing lyrics and tabs in a legal way, paying royalties each year to a few organizations. Then, all lyrics and tabs were removed from the site. Now, there's a new owner to the site, which purchased it August 26, 2014, and he is in negotiation to obtain licensing from BMI at the moment. If you have a specific DMCA request -- please do not hesitate to contact me via the contact button on top. I will do my very best to keep this site fully legal.

Get our toolbar!

 

Starbucks You Are Here Coffee Mug/Cup KENTUCKY - Horses, Banjo, Blue, White
$19.99
Starbucks You Are Here Coffee Mug/Cup KENTUCKY - Horses, Banjo, Blue, White picture


KNOWLES ROCKWELL HERITAGE "THE BANJO PLAYER" FIRST EDITION 1989 PLATE COA
$5.99
KNOWLES ROCKWELL HERITAGE


Vintage Postcard 1981 Disney World Banjo Kings Main Street USA 1981 Postmark
$4.99
 Vintage Postcard 1981 Disney World Banjo Kings Main Street USA 1981 Postmark picture


Banjo Barometer With Thermometer Hygrometer 490mm
$84.76
Banjo Barometer With Thermometer Hygrometer 490mm picture


ANTIQUE JAPANESE NIPPON FIGURINE SET OF 3 WOMEN GEISHA PLAYING DRUM BANJO FAN
$24.0
ANTIQUE JAPANESE NIPPON FIGURINE SET OF 3 WOMEN GEISHA PLAYING DRUM BANJO FAN picture