Your One-Stop Source For
Music Lyrics
Bass and Guitar Tabs
and More...
Music Lyrics Bass and Guitar Tabs

 

The Tabs Are Below

Learn To Read Tab
Chords Handbook
Corrections & Additions
Get Official Tab
3EB tabs @ 911Tabs

 THIRD EYE BLIND

"BLINDED (when i see you)" from the album >Out of the Vein<

 

Intro: (bass? still sounds good though)

 

(6x) (6x)

G[--15-----h17p15----14---12--10------]

D[------------------------------------]

 

or the real way

A[----]

E[--1-] until it's over

 

Verse:

(each note played 8 times)

G[------------------------]

D[------------------------]

A[--/5---3---1---3--------]

E[------------------------]

 

Pre-Chorus:

(each note 8 times)

G[-----------------/3-]

D[-------------/3-----]

A[--1--3--------------]

E[--------------------]

 

CHORUS 1:

 

G[-----------------------------------]

D[-----------------------------------]

A[--1---3------0---1--3--5---3--------]

E[----------1------------------------]

 

BLINDED! part

 

G[------------------------------]

D[------------------------------]

A[--1-(4 times)----3-(12 times)--]

E[------------------------------]

 

CHORUS 2:

G[--------------------------------------------------]

D[--------------------------------------------------]

A[--1--3-----0--1--3-----0--1--3--5--3--1--3--5--3--]

E[--------1-----------3-----------------------------]

 

CHORUS 3 (w/oh yeah part):

G[-------------------------------]

D[--------5--------------5-------]

A[-1---3-----3---5---3------3----]

E[-------------------------------]

 

 

 

 

SONG ORDER:

intro

verse

prechorus

chorus

intro

verse

prechorus

chorus 2

blinded

intro

verse

prechorus

chorus 2

chorus 3

intro

 

 

Return to my to my TEB bass tabs page

The Tablature is Copyright its respective owners.

Sign Up For My Newsletter
Subscribe | Unsubscribe

Site Map | Disclaimer | Privacy Policy | Media Kit | Submissions/Corrections

Website © 2000-2014 mattsmusicpage.com. All rights reserved.

Legal & DMCA: Matt's Music Page has been providing lyrics and tabs in a legal way, paying royalties each year to a few organizations. Then, all lyrics and tabs were removed from the site. Now, there's a new owner to the site, which purchased it August 26, 2014, and he is in negotiation to obtain licensing from BMI at the moment. If you have a specific DMCA request -- please do not hesitate to contact me via the contact button on top. I will do my very best to keep this site fully legal.

Get our toolbar!

 

Starbucks You Are Here Coffee Mug/Cup KENTUCKY - Horses, Banjo, Blue, White
$19.99
Starbucks You Are Here Coffee Mug/Cup KENTUCKY - Horses, Banjo, Blue, White picture


KNOWLES ROCKWELL HERITAGE "THE BANJO PLAYER" FIRST EDITION 1989 PLATE COA
$5.99
KNOWLES ROCKWELL HERITAGE


Vintage Postcard 1981 Disney World Banjo Kings Main Street USA 1981 Postmark
$4.99
 Vintage Postcard 1981 Disney World Banjo Kings Main Street USA 1981 Postmark picture


Banjo Barometer With Thermometer Hygrometer 490mm
$84.76
Banjo Barometer With Thermometer Hygrometer 490mm picture


ANTIQUE JAPANESE NIPPON FIGURINE SET OF 3 WOMEN GEISHA PLAYING DRUM BANJO FAN
$24.0
ANTIQUE JAPANESE NIPPON FIGURINE SET OF 3 WOMEN GEISHA PLAYING DRUM BANJO FAN picture