Your One-Stop Source For
Music Lyrics
Bass and Guitar Tabs
and More...
Music Lyrics Bass and Guitar Tabs

 

The Tabs Are Below

Learn To Read Tab
Chords Handbook
Corrections & Additions
Get Official Tab
3EB tabs @ 911Tabs

Mike Fish=tabber

\=DOWN

/=UP

H=HAMMER

P=PULL

 

Notes: There is some background noise (maybe a mixer

doing some fill?), so you'll have to get a keyboard

to make it sound good live, but this is how it goes.

 

G:-10---------------10\--3--------------3/--

D:----11----10H11------------4----3h4-------

A:-------------------------4----4-----4-----

E:--------9-------9-------------------------

 

Continued Immediatly:

G:-10----8---6-------3------1H3-3/--

D:----11--11--8--6\-----------------

A:------------------------4---------

E:----------------------------------

 

Continued Immediatly: (same as first)

G:-10---------------10\--3--------------3/--

D:----11----10H11------------4----3h4-------

A:-------------------------4----4-----4-----

E:--------9-------9-------------------------

 

Continued Immediatly: (4~~~ cut off by guitar)

G:-10----11P10--8/10\--3----------------------

D:----11--------------------------------------

A:------------------------4~~~----------------

E:--------------------------------------------

 

 

Return to my to my TEB bass tabs page

The Tablature is Copyright its respective owners.

Sign Up For My Newsletter
Subscribe | Unsubscribe

Site Map | Disclaimer | Privacy Policy | Media Kit | Submissions/Corrections

Website © 2000-2014 mattsmusicpage.com. All rights reserved.

Legal & DMCA: Matt's Music Page has been providing lyrics and tabs in a legal way, paying royalties each year to a few organizations. Then, all lyrics and tabs were removed from the site. Now, there's a new owner to the site, which purchased it August 26, 2014, and he is in negotiation to obtain licensing from BMI at the moment. If you have a specific DMCA request -- please do not hesitate to contact me via the contact button on top. I will do my very best to keep this site fully legal.

Get our toolbar!