Your One-Stop Source For
Music Lyrics
Bass and Guitar Tabs
and More...
Music Lyrics Bass and Guitar Tabs

 

The Tabs Are Below

Learn To Read Tab
Chords Handbook
Corrections & Additions
Get Official Tab
3EB tabs @ 911Tabs

 

#----------------------------------PLEASE NOTE--------------------------------#

#This file is the author's own work and represents their interpretation of the#

#song. You may only use this file for private study, scholarship, or research.#

#-----------------------------------------------------------------------------#

#-- File created with Instab - http://www.pconline.com/~smcarey/instab.html --#

#-----------------------------------------------------------------------------#

The Background

Tuning: Open D *DADF#AD*

 

Intro

-0h4p0----0-------|-0h4p0---0---------0--|------------------------------------

-------4----0--0--|-------4---0-------0--|------------------------------------

---------------0--|----------------------|------------------------------------

---------------0--|--------------5--5----|------------------------------------

------------------|--------------5-------|------------------------------------

------------------|--------------5-------|------------------------------------

repeat once

 

Verse Verse Fig. 1

------------------|----------------------|--------12--12--x---7--7--x--0------

-----0-----0------|----------------------|--------12--12--x---7--7--x--0------

--0------0--------|------------------0---|--------12--12--x---7--7-----0------

--0----0----------|-5-7-5h7--5h7--5------|-----9--12--12------7--7------------

---------------5--|---5-5----5----5------|-----9------------------------------

------------------|----------------------|-----9------------------------------

repeat until

Verse Fig.2

------------------|-----------5-----5---0|------------------------------------

------------------|-------------------5--|------------------------------------

---0--0---0--0----|---5--5------------5--|------------------------------------

-0----0---0--0--5-|-5----5h7-----5h7-----|------------------------------------

----------------5-|----------------------|------------------------------------

------------------|----------------------|------------------------------------

repeat til above figure

 

Prechorus Chorus

-----0-----------------|-0--------------|-------0---------------|----0--------

-----0-----------------|-0--------------|-------0---------------|----0--------

-----7-----------------|-7--------------|-------8---------------|----12-------

-----7-----------------|-7--------------|-------9---------------|----12-------

-----x-----------------|-x--------------|-------x---------------|----x--------

-----7-----------------|-7----------7/9-|-------9---------------|----12-------

the plans i made still have you in them...when you come swimming into view

 

-0---0----0---|------------------------|-5-5---5-5--5---0----------------0----

-10--10---10--|------------------------|-5-5---5-5--5---0----------------0----

-12--12---12--|------------------------|-5-5---5-5--5---0----------------0----

-12--12---12--|------------------------|-5-5---5-5--5---0----------------0----

-x---x----x---|------------------------|-5-5---5-5--5---x----------------0----

-12--12---12--|------------------------|-5-5---5-5--5---5----------------0----

repeat through chorus.. carry you around..in the background

 

Coda

-0---0-----0h4p0---0---0-|--0------0h4p2---0----------------------------------

-0---0---x-------4-----0-|--0--x---------4---0--------------------------------

-3---3---x-------------x-|--x--x----------------------------------------------

-0---0---x-------------5-|--5--x----------------------------------------------

-0---0---x-------------5-|--5--x----------------------------------------------

-0---0-----------------5-|--5-------------------------------------------------

w/ dist. repeat

 

Solo

--17--17--16b17r16----12-|-14/17--17-16b17r16\12--|-14-14p12-14p12-12/17-17---

-------------------------|------------------------|---------------------------

-------------------------|------------------------|---------------------------

-------------------------|------------------------|---------------------------

-------------------------|------------------------|---------------------------

-------------------------|------------------------|---------------------------

 

--16b17r16---12----------|----------------------------------------------------

-------------------------|-12--12\10---10\9---9\7----7\5----------------------

-------------------------|----------------------------------------------------

-------------------------|----------------------------------------------------

-------------------------|----------------------------------------------------

-------------------------|----------------------------------------------------

 

Outro

--7--7--4------0-------------------------0--0---------------------------------

---------------0-------------------------0--0---------------------------------

---------------0------10--10--10h12p10---0--0---------------------------------

--5--5--5---7----7----xx--xx--xxxxx-----12-12---------------------------------

--5--5--5---7----7----xx--xx--xxxxx------0--0---------------------------------

--5--5--5---7----7----10--10--10--------12-12---------------------------------

 

 

 

 

Return to my to my TEB tabs page

The Tablature is Copyright its respective owners.

Sign Up For My Newsletter
Subscribe | Unsubscribe

Site Map | Disclaimer | Privacy Policy | Media Kit | Submissions/Corrections

Website © 2000-2014 mattsmusicpage.com. All rights reserved.

Get our toolbar!