Your One-Stop Source For
Music Lyrics
Bass and Guitar Tabs
and More...
>Music Lyrics Bass and Guitar Tabs

 

The The Used Drum Tabs Are Below

Learn To Read Tab
Chords Handbook
Corrections & Additions
Get Official Tab
The Used tabs @ 911Tabs

The Used- Poetic Tragedy

 

The bass is very faint in this song, it took me a long time to tab, so please rate!

A kickass song from a kickass album!

Tabbed By: Alex (DTRMIDTOWN87)

 

Chorus

G--------------------------------------------------------------

D--------------------------------------------------------------

A-1-1-1-1-1-1-1-1----------------4-4-4-4-4-4-4-4-5-5-5-5-5-5-5-5

E-----------------5-5-5-5-5-5-5-5-------------------------------

 

G---------------------------------------------------------------

D---------------------------------------------------------------

A-1-1-1-1-1-1-1-1-----------------4-4-4-4-4-4-4-4---------------

E------------------5-5-5-5-5-5-5-5----------------5-------------

 

When He sings "He Feels Alone"

G-----------------------------------------------------------------

D--------------------------44444444-------------------------------

A-22222222--------55555555----------------------------------------

E---------33333333------------------55555555-66666666-55555555-6--

 

Outro or the Bridge (*=Hold Note)

G----------------------------------------------------------------

D----------------------------------------------------------------

A----------------------------------------------------------------

E-0*----5*----4*----2*----0*----5*----4*----2*-------------------

 

Email me with any thoughts at sensesfailpunk87@aol.com

 

Return to my The Used Drum Tabs page

The Tablature is Copyright its respective owners.

The creator of this page is in no way affiliated with The Used. The creator of this page is simply a fan that made a page about The Used Guitar Tablature and more.

Sign Up For My Newsletter
Subscribe | Unsubscribe

Site Map | Disclaimer | Privacy Policy | Media Kit | Submissions/Corrections

Website © 2000-2014 mattsmusicpage.com. All rights reserved.

Legal & DMCA: Matt's Music Page has been providing lyrics and tabs in a legal way, paying royalties each year to a few organizations. Then, all lyrics and tabs were removed from the site. Now, there's a new owner to the site, which purchased it August 26, 2014, and he is in negotiation to obtain licensing from BMI at the moment. If you have a specific DMCA request -- please do not hesitate to contact me via the contact button on top. I will do my very best to keep this site fully legal.

Get our toolbar!

 

Restored Nordmende Carmen 58 3D Vintage Tube Radio Splendid Valve Amplifier 50s
$1.0
Restored Nordmende Carmen 58 3D Vintage Tube Radio Splendid Valve Amplifier 50s picture


Rock-ola Jukebox Parts. Model 447.Integrated Curcuit Amplifier-46380-A
$80.0
Rock-ola Jukebox Parts. Model 447.Integrated Curcuit Amplifier-46380-A picture


Tube 7ea 6CS6 4NIB GE tstd amp radio amplifier ham
$6.95
Tube 7ea 6CS6 4NIB GE tstd amp radio amplifier ham picture


Tube 5ea JAN 5725 / 6AS6 / 6187 4NIB tstd amp radio amplifier ham
$7.95
Tube 5ea JAN 5725 / 6AS6 / 6187 4NIB tstd amp radio amplifier ham picture


Tube 6ea 6AU6 Hewlett Packard made by GE tstd amp radio amplifier ham
$9.95
Tube 6ea 6AU6 Hewlett Packard made by GE  tstd amp radio amplifier ham picture