Your One-Stop Source For
Music Lyrics
Bass and Guitar Tabs
and More...
Music Lyrics Bass and Guitar Tabs

 

The The Used Guitar Tablature Is Below

Learn To Read Tab
Chords Handbook
Corrections & Additions
Get Official Tab
The Used tabs @ 911Tabs

Tabbed By: DAVE

 

This is my first tab so bear with me

 

UPDATED:(6/1) fixed verse

 

VERSE 1(0:00-0:21)

e|-------------------------------------|

B|-------------------------------------|

G|7-7-7-7-7-7-7-7979-7-7-7-7-7-7-7-7979|

D|X-X-X-X-X-X-X-XXXX-X-X-X-X-X-X-X-XXXX|

A|5-5-5-5-5-5-5-5555-5-5-5-5-5-5-5-5555|

D|-------------------------------------|

2X

e|-------------------------------------|

B|-------------------------------------|

G|3-3-3-3-3-3-3-3333-6-6-6-6-6-6-6-6666|

D|X-X-X-X-X-X-X-XXXX-X-X-X-X-X-X-X-XXXX|

A|1-1-1-1-1-1-1-1111-4-4-4-4-4-4-4-4444|

D|-------------------------------------|

 

CHORUS(0:22-0:32)

e|---------------------------|

B|---------------------------|

G|3-3333--------5-5555-------|

D|3-3333-3-3333-5-5555-0-0000|

A|1-1111-3-3333-3-3333-0-0000|

D|-------3-3333--------0-0000|

 

e|---------------------------|

B|---------------------------|

G|3-3333--------5-55555555555|

D|3-3333-3-3333-5-55555555555|

A|1-1111-3-3333-3-33333333333|

D|-------3-3333--------------|

 

VERSE 2(0:33-0:54) NO GUITAR UNTIL 0:44

e|-------------------------------------|

B|-------------------------------------|

G|7-7-7-7-7-7-7-7979-7-7-7-7-7-7-7-7979|

D|X-X-X-X-X-X-X-XXXX-X-X-X-X-X-X-X-XXXX|

A|5-5-5-5-5-5-5-5555-5-5-5-5-5-5-5-5555|

D|-------------------------------------|

 

e|-------------|

B|-------------|

G|-------------|

D|----2---3---3|

A|5---0---1---1|

D|5------------|

 

WIERD PART(0:55-1:05)

NO GUITAR

 

CHORUS(1:05-1:30) PLAY 2X

e|---------------------------|

B|---------------------------|

G|3-3333--------5-5555-------|

D|3-3333-3-3333-5-5555-0-0000|

A|1-1111-3-3333-3-3333-0-0000|

D|-------3-3333--------0-0000|

 

e|---------------------------|

B|---------------------------|

G|3-3333--------5-55555555555|

D|3-3333-3-3333-5-55555555555|

A|1-1111-3-3333-3-33333333333|

D|-------3-3333--------------|

 

BRIDGE

(1:31-1:34)

e|--------------|

B|--------------|

G|--------------|

D|-0~~----------|

A|-0~~(LET RING)|

D|-0~~----------|

(1:35-1:45)

e|-----------------------------------------------------|

B|-----------------------------------------------------|

G|1010101010101010101010101010101010101010/121212121212|

D|X-X-X-X-X-X-X-X-X-X-X-X-X-X-X-X-X-X-X-X--X-X-X-X-X-X-|2X

A|8-8-8-8-8-8-8-8-8-8-8-8-8-8-8-8-8-8-8-8-/101010101010|

D|-----------------------------------------------------|

(1:46-1:58

e|---------------------------------------------------|

B|---------------------------------------------------|

G|101010---101010-101010--101010--101010--1010/121212|

D|X-X-X----X-X-X--X-X-X---X-X-X---X-X-X---X-X--X-X-X-|2X

A|8-8-8----8-8-8--8-8-8---8-8-8---8-8-8---8-8-/101010|

D|---------------------------------------------------|

 

CHORUS (2:00-2:23)PLAY 2X

e|---------------------------|

B|---------------------------|

G|3-3333--------5-5555-------|

D|3-3333-3-3333-5-5555-0-0000|

A|1-1111-3-3333-3-3333-0-0000|

D|-------3-3333--------0-0000|

 

e|---------------------------|

B|---------------------------|

G|3-3333--------5-55555555555|

D|3-3333-3-3333-5-55555555555|

A|1-1111-3-3333-3-33333333333|

D|-------3-3333--------------|

 

OUTRO(2:24-2:37)

e|------------------|

B|------------------|

G|7-7-7-7-7-7-7-7979|

D|X-X-X-X-X-X-X-XXXX|5x

A|5-5-5-5-5-5-5-5555|

D|------------------|

 

END ON

e|---|

B|---|U PLAY IT THREE TIMES, AT 2:38, 2:40, AND 2:47

G|---|LET IT RING EACH TIME

D|-0-|

A|-0-|

D|-0-|

 

ITS MY FIRST TAB SO DONT RIP ME APART TOO MUCH IF ITS WRONG

Return to my The Used Guitar Tablature page

The Tablature is Copyright its respective owners.

The creator of this page is in no way affiliated with The Used. The creator of this page is simply a fan that made a page about The Used Tablature and more.

Sign Up For My Newsletter
Subscribe | Unsubscribe

Site Map | Disclaimer | Privacy Policy | Media Kit | Submissions/Corrections

Website © 2000-2014 mattsmusicpage.com. All rights reserved.

Legal & DMCA: Matt's Music Page has been providing lyrics and tabs in a legal way, paying royalties each year to a few organizations. Then, all lyrics and tabs were removed from the site. Now, there's a new owner to the site, which purchased it August 26, 2014, and he is in negotiation to obtain licensing from BMI at the moment. If you have a specific DMCA request -- please do not hesitate to contact me via the contact button on top. I will do my very best to keep this site fully legal.

Get our toolbar!