Your One-Stop Source For
Music Lyrics
Bass and Guitar Tabs
and More...
>Music Lyrics Bass and Guitar Tabs

 

The The Used Guitar Tablature Is Below

Learn To Read Tab
Chords Handbook
Corrections & Additions
Get Official Tab
The Used tabs @ 911Tabs

This is my first tab so hopefully it's ok :)

 

Intro/Verse (w/delay):

 

-----------------------------------------|

-----2-----------------------------------|

---2---2-------2---2---------------------|

-4-------2---0---2---0-------------------|

-----------------------------------------|

-----------------------------------------|

 

 

Chorus:

 

-2--2--2--2------------------------------|

-2--2--2--2------------------------------|

-2--2--2--2------------------------------|

-0--2--4--2------------------------------|

-0--2--4--2------------------------------|

-0--2--4--2------------------------------|

 

You don’t have to play the high notes on the second fret but it adds tone to the chorus.

 

At the end of the second time you are playing the chorus add this to the last few strums:

 

-2--2--2--2--x---------------------------|

-2--2--2--2--x---------------------------|

-2--2--2--2--x---------------------------|

-0--2--4--2--x---------------------------|

-0--2--4--2--x---------------------------|

-0--2--4--2--x---------------------------|

 

The last time you play the chorus you only play:

 

-2--2------------------------------------|

-2--2------------------------------------|

-2--2------------------------------------|

-0--2------------------------------------|

-0--2------------------------------------|

-0--2------------------------------------|

 

Bridge:

 

First Part:

-2x2x2x2xxxx2x2x2x2xxxx2-----------------|

-2x2x2x2xxxx2x2x2x2xxxx2-----------------|

-2x2x2x2xxxx2x2x2x2xxxx2-----------------|

-4x4x4x4xxxx4x4x4x4xxxx4-----------------|

-4x4x4x4xxxx4x4x4x4xxxx4-----------------|

-4x4x4x4xxxx4x4x4x4xxxx4-----------------|

 

Second Part:

-2--2--2---------------------------------|

-2--2--2---------------------------------|

-2--2--2---------------------------------|

-4--2--0---------------------------------|

-4--2--0---------------------------------|

-4--2--0---------------------------------|

PM . . .

 

(First two times played palm mute, last two times played openly)

 

Third Part

-2---------------------------------------|

-2---------------------------------------|

-2---------------------------------------|

-4---------------------------------------|

-4---------------------------------------|

-4---------------------------------------|

PM .

 

(Palm mute and slowly release)

 

 

Outro:

 

-2x2x2x2xxxx2----------------------------|

-2x2x2x2xxxx2----------------------------|

-2x2x2x2xxxx2----------------------------|

-4x4x4x4xxxx4----------------------------|

-4x4x4x4xxxx4----------------------------|

-4x4x4x4xxxx4----------------------------|

 

Order:

 

Intro/Verse x 8

Chorus x 4

Intro/Verse x 8

Chorus x 4

Bridge (1) x 1

Bridge (2) x 1

Bridge (3) x 1

Chorus x 4

Outro x 1

Return to my The Used Guitar Tablature page

The Used Guitar Tablature is Copyright its respective owners.

The creator of this page is in no way affiliated with The Used. The creator of this page is simply a fan that made a page about The Used Tablature and more.

Sign Up For My Newsletter
Subscribe | Unsubscribe

Site Map | Disclaimer | Privacy Policy | Media Kit | Submissions/Corrections

Website © 2000-2014 mattsmusicpage.com. All rights reserved.

Legal & DMCA: Matt's Music Page has been providing lyrics and tabs in a legal way, paying royalties each year to a few organizations. Then, all lyrics and tabs were removed from the site. Now, there's a new owner to the site, which purchased it August 26, 2014, and he is in negotiation to obtain licensing from BMI at the moment. If you have a specific DMCA request -- please do not hesitate to contact me via the contact button on top. I will do my very best to keep this site fully legal.

Get our toolbar!

 

Angel Blow Mold Vintage Musical Lyre Harp WORKS Stands 13.5 Inches Tall CLEAN
$29.99
Angel Blow Mold Vintage Musical Lyre Harp WORKS Stands 13.5 Inches Tall CLEAN picture


11.5" Ceramic Angel Playing Harp
$14.99
11.5


Collectible Vintage 1913 St. Patrick's Day Postcard: Harp,Recorder,Flag,Dancer
$7.99
Collectible Vintage 1913 St. Patrick's Day Postcard: Harp,Recorder,Flag,Dancer picture


Collectible Vintage St.Patrick's Day Postcard: Man in Bow Tie,Top Hat,Harp Flag
$7.99
Collectible Vintage St.Patrick's Day Postcard: Man in Bow Tie,Top Hat,Harp Flag picture


Vintage Hand Painted African Stencil Cloth Bookmark Buffalo Afrique Harp
$5.95
Vintage Hand Painted African Stencil Cloth Bookmark Buffalo Afrique Harp picture