Your One-Stop Source For
Music Lyrics
Bass and Guitar Tabs
and More...
>Music Lyrics Bass and Guitar Tabs

 

The Them Crooked Vultures Guitar Tablature Is Below

Learn To Read Tab
Chords Handbook
Corrections & Additions
Get Official Tab
Them Crooked Vultures tabs @ 911Tabs

Them Crooked Vultures - Spinning in Daffodils

 

Tabbed By: Mark DiFranco

 

 

Tuning - D A D G B e

 

Main Riff:

e|--------------------------------------------------------------------|

B|--------------------------------------------------------------------|

G|--------------------------------------------------------------------|

D|---5-5---8\7/8\7--5-5---8\7/8\7--5-5---8\7/8\7--5-5---8\7/8\7-------|

A|---5-5---8\7/8\7--5-5---8\7/8\7--5-5---8\7/8\7--5-5---8\7/8\7-------|

D|---5-5------------5-5------------5-5------------5-5-----------------|

 

Chorus:

e|--------------------------------------------------------------------|

B|--------------------------------------------------------------------|

G|--------------------------------------------------------------------|

D|---8-8-10-12-10-8-5-5---8\7/8\7--5-5---8\7/8\7----------------------|

A|---8-8-10-12-10-8-5-5---8\7/8\7--5-5---8\7/8\7----------------------|

D|---8-8-10-12-10-8-5-5------------5-5--------------------------------|

 

e|--------------------------------------------------------------------|

B|--------------------------------------------------------------------|

G|--------------------------------------------------------------------|

D|-8-8-10-12-15-12-8-8-10-12-15-12-8-8-10-12-15-12-8-10-5-5-8\7/8\7---|

A|-8-8-10-12-15-12-8-8-10-12-15-12-8-8-10-12-15-12-8-10-5-5-8\7/8\7---|

D|-8-8-10-12-15-12-8-8-10-12-15-12-8-8-10-12-15-12-8-10-5-5-----------|

 

Verse Riffs:

e|--------------------------------------------------------------------|

B|--------------------------------------------------------------------|

G|--------------------------------------------------------------------|

D|--------------------------------------------------------------------|

A|---5~---5-4-5-5/7-4~----5/8-8-8-8--7-8-7-5-5/7-7~--7-4-5-7-4~-------|

D|----------------------5---------------------------------------------|

 

e|--------------------------------------------------------------------|

B|--------------------------------------------------------------------|

G|--------------------------------------------------------------------|

D|--------------------------------------------------------------------|

A|---5~4~2---2/7-5-4-2~---5/8-8-8-8--7-8-7-5-5/7-7~--4-5-7-4~---------|

D|----------------------5---------------------------------------------|

 

"Solo" after first Chorus:

e|--------------------------------------------------------------------|

B|---2p0-------2p0------2p0------2p0------2p0-------------------------|

G|------3p0-------3p0------3p0------3p0------3p0---3p0----------------|

D|---------2-0-------2-0------2p0------2p0------2p0-----5~------------|

A|------------------------------------------------------5~------------|

D|------------------------------------------------------5~------------|

 

Right before the Transition

e|--------------------------------------------------------------------|

B|--------------------------------------------------------------------|

G|----------------------------------13\12/13\12----13\12/13\12--------|

D|----9~--9/10-9--7\6--6/7-6~-------13\12/13\12----13\12/13\12--------|

A|--------------------------------------------------------------------|

D|--------------------------------------------------------------------|

 

Transition:

e|--------------------------------------------------------------------|

B|--------------------------------------------------------------------|

G|--12~--12~--9-12-16~--17~-17~--17-17-16-14-13--13br---12~--9-12-16~-|

D|--------------------------------------------------------------------|

A|--------------------------------------------------------------------|

D|--------------------------------------------------------------------|

 

w/ slide: (from a live version; improvise using these notes)

e|--------------------------------------------------------------------|

B|----/5~~\---/5~/7\5~~5/8\~--3/6\5~----5-//12--12/13\12--------------|

G|--------------------------------------------------------------------|

D|--------------------------------------------------------------------|

A|--------------------------------------------------------------------|

D|--------------------------------------------------------------------|

 

e|--------------------------------------------------------------------|

B|---/16-16/17\16--16\14\13~-etc--------------------------------------|

G|--------------------------------------------------------------------|

D|--------------------------------------------------------------------|

A|--------------------------------------------------------------------|

D|--------------------------------------------------------------------|

Return to my Them Crooked Vultures Guitar Tablature page

The Tablature is Copyright its respective owners.

The creator of this page is in no way affiliated with Them Crooked Vultures. The creator of this page is simply a fan that made a page about Them Crooked Vultures Tablature and more.

Sign Up For My Newsletter
Subscribe | Unsubscribe

Site Map | Disclaimer | Privacy Policy | Media Kit | Submissions/Corrections

Website © 2000-2014 mattsmusicpage.com. All rights reserved.

Legal & DMCA: Matt's Music Page has been providing lyrics and tabs in a legal way, paying royalties each year to a few organizations. Then, all lyrics and tabs were removed from the site. Now, there's a new owner to the site, which purchased it August 26, 2014, and he is in negotiation to obtain licensing from BMI at the moment. If you have a specific DMCA request -- please do not hesitate to contact me via the contact button on top. I will do my very best to keep this site fully legal.

Get our toolbar!

 


Seth Thomas Banjo Wind Up Wall Clock 4 Jewels Unadjusted Working Condition
$
Seth Thomas Banjo Wind Up Wall Clock 4 Jewels Unadjusted Working Condition picture


Vintage Valentine Card Black African American Ragtime Banjo (Mechanical)
$
Vintage Valentine Card Black African American Ragtime Banjo (Mechanical) picture


Limoges Miniature Musical Instruments Phonograph, Piano, Harp, Banjo and Violin
$
Limoges Miniature Musical Instruments Phonograph, Piano, Harp, Banjo and Violin picture


Funko Pop Games Banjo-Kazooie - Vinyl Figure - #981
$
Funko Pop Games Banjo-Kazooie - Vinyl Figure - #981 picture


FANGAMER Banjo Kazooie Sticker Series # 035 RARE
$
FANGAMER Banjo Kazooie Sticker Series # 035 RARE picture


Funko Pop Games: Banjo-Kazooie Vinyl Figure #981 In Hand
$
Funko Pop Games: Banjo-Kazooie Vinyl Figure #981 In Hand picture


Banjo-Kazooie Funko Pop Vinyl Figure #981
$
Banjo-Kazooie Funko Pop Vinyl Figure #981 picture


Funko Pop Banjo-Kazooie - Banjo-Kazooie - GameStop Exclusive
$
Funko Pop Banjo-Kazooie - Banjo-Kazooie - GameStop Exclusive picture


SKS Banjo Oiler with Original Leather Pouch.
$
SKS Banjo Oiler with Original Leather Pouch.   picture


ORIGINAL ANTIQUE U.S.A.HERSCHEDE CINCINNATI BANJO CLOCK,WEIGHT DRIVIN
$
ORIGINAL ANTIQUE U.S.A.HERSCHEDE CINCINNATI BANJO CLOCK,WEIGHT DRIVIN picture