Your One-Stop Source For
Music Lyrics
Bass and Guitar Tabs
and More...
Music Lyrics Bass and Guitar Tabs

 

The Them Crooked Vultures Bass Tabs Are Below

Learn To Read Tab
Chords Handbook
Corrections & Additions
Get Official Tab
Them Crooked Vultures tabs @ 911Tabs

This is good enough! Any corrections then tell me :)

 

G|----------------------------------|

D|---------10-----------------------|

A|12-12-12---12p10------------------|x4

E|----------------12-10-10-10-12-8--|

 

====

 

G|----------------------------------|

D|---------10-----------------------|

A|12-12-12---12p10------------------|x2

E|----------------12-10-10-10-12-8--|

 

G|------------------------------------|

D|---------10-------------------------|

A|12-12-12---12p10--------------------|x2

E|----------------12-10-10-10-12-9-8--|

 

G|----------------------------------|

D|---------10-----------------------|

A|12-12-12---12p10------------------|x2

E|----------------12-10-10-10-12-8--|

 

G|-------------------------------------------------------------------------|

D|-----------9-10-12-12-x-12-10----------------9-10-12-12-10h1212-10h1212--|

A|12-12-x-12--------------------13--12-12-x-12-----------------------------|

E|-------------------------------------------------------------------------|

 

====

 

G|-----------------------------------------------------------------------|

D|-----------9-10-12-12-x---------------------9-10-12-10-9------------9--|

A|12-12-x-12-----------------9-10--12-12-x-12--------------12-10-9-10----|

E|------------------------12---------------------------------------------|

 

G|-----------------------------------------------------------------------|

D|-----------9-10-12-12-x---------------------9-10-12-x-10h1212-10h1212--|

A|12-12-x-12-----------------9-10--12-12-x-12----------------------------|

E|------------------------12---------------------------------------------|

 

G|------------------------------------------------------------------------|

D|-----------9-10-12-12-/17-19-17----------------9-10-12-12-12-/16-17-19--|

A|12-12-x-12----------------------16--12-12-x-12--------------------------|

E|------------------------------------------------------------------------|

 

G|----------------------------------------------------------------------|

D|-----------9-10-12-12-12-14-12-10-------------9-10-12-12-12-14-12-14--|

A|12-12-x-12-------------------------12-12-x-12-------------------------|

E|----------------------------------------------------------------------|

 

====

 

G|-------------------------------------|

D|---------10--------------------------|

A|12-12-12---12p10---------------------|x2

E|----------------12-10-10-10-12-8-10--|

 

G|---------------------------------------------------------------------------|

D|---------10----------------------------------------------------------------|

A|12-12-12----12-10-------------------12-12-14-12-14-12-10-------------------|

E|------------------10-10-10-12-10-8-----------------------10-10-10-12-10-8--|

 

====

 

G|-------------------------------------------------|

D|-------------------------------------------------|

A|12-12-12-12-12-12-12-12--------------------------|

E|------------------------12-12-12-12-12-12-12-12--|

 

G|-------------------------------------------------|

D|-------------------------------------------------|

A|-------------------------------------------------|

E|10-10-10-10-10-10-10-10-10-10-10-10-10-10-10-10--|

 

====x3

 

G|-------------------------------------------------|

D|-------------------------------------------------|

A|12-12-12-12-12-12-12-12--------------------------|

E|------------------------12-12-12-12-12-12-12-12--|

 

G|----------------------------------|

D|---------10-----------------------|

A|12-12-12---12p10------------------|x2

E|----------------12-10-10-10-12-8--|

====

 

G|----------------------------------------------------------------------|

D|---------10-------------------------------10--------------------------|

A|12-12-12----12-10----------------12-12-12---12p10---------------------|

E|------------------10-10-10-12h9------------------12-10-10-10-12-10-8--|

 

====

 

G|-------------------------------------14----14--------------------------|

D|-----------9-12-12-12-14-12-9--------------------12-12-121414141210----|

A|12-12-12-12--------------------12-12----12----12-------------------13--|

E|-----------------------------------------------------------------------|

 

G|-------------------------------------------------------------------------|

D|---------9h10h129-12-12-x-12-10-9---------------9-10-12-12-121212-12-12--|

A|12-12-12---------------------------12-12-121212--------------------------|

E|-------------------------------------------------------------------------|

 

G|---------------------------------|

D|-----------9-10-12-12-12-10-9-8--|

A|12-12-x-12-----------------------|x2

E|---------------------------------|

 

G|-------------------------------------|

D|------------------12-12-14-12-14-12--|

A|12-12-12-14-12-14--------------------|x2

E|-------------------------------------|

 

G|---------------------------------|

D|-----------9-10-12-12-12-10-9-8--|

A|12-12-x-12-----------------------|x6

E|---------------------------------|

 

G|------14----14--------------------------|

D|------------------12-12-12h14-12-12-10--|

A|12-12----12----12-----------------------|x2

E|----------------------------------------|

 

====

 

G|----------------------------------|

D|---------10-----------------------|

A|12-12-12---12p10------------------|x2

E|----------------12-10-10-10-12-8--|

 

G|------------------------------------|

D|---------10-------------------------|

A|12-12-12---12p10--------------------|x2

E|----------------12-10-10-10-12-9-8--|

 

====

 

G|-------------------------------------------------|

D|-------------------------------------------------|

A|12-12-12-12-12-12-12-12--------------------------|

E|------------------------12-12-12-12-12-12-12-12--|

 

G|-------------------------------------------------|

D|-------------------------------------------------|

A|-------------------------------------------------|

E|10-10-10-10-10-10-10-10-10-10-10-10-10-10-10-10--|

 

====x3

 

G|-------------------------------------------------|

D|-------------------------------------------------|

A|12-12-12-12-12-12-12-12--------------------------|

E|------------------------12-12-12-12-12-12-12-12--|

 

G|----------------------------------|

D|---------10-----------------------|

A|12-12-12---12p10------------------|

E|----------------12-10-10-10-12-8--|

 

G|----------------------------------------------|

D|---------10--------10-------------------------|

A|12-12-12---12p10-----12p10---10------10--10---|

E|----------------12--------12---12p10---8---8--|

Return to my Them Crooked Vultures Bass Tabs page

The Bass Tablature is Copyright its respective owners.

The creator of this page is in no way affiliated with Them Crooked Vultures. The creator of this page is simply a fan that made a page about Them Crooked Vultures Bass Tablature and more.

Sign Up For My Newsletter
Subscribe | Unsubscribe

Site Map | Disclaimer | Privacy Policy | Media Kit | Submissions/Corrections

Website © 2000-2014 mattsmusicpage.com. All rights reserved.

Get our toolbar!