Your One-Stop Source For
Music Lyrics
Bass and Guitar Tabs
and More...
>Music Lyrics Bass and Guitar Tabs

 

The Them Crooked Vultures Bass Tabs Are Below

Learn To Read Tab
Chords Handbook
Corrections & Additions
Get Official Tab
Them Crooked Vultures tabs @ 911Tabs

G|-------|

D|-------|

A|-------|

E|3~--6--|

 

G|-----------------------------------|

D|-----------------------------------|

A|----7-5---7-5-------7-5------------|x4

E|7-7-----7-----7p5h7-----7-7-3-3-5--|

 

Verse:

G|-----------------------------------|

D|-----------------------------------|

A|----7-5---7-5-------7-5------------|x4

E|7-7-----7-----7p5h7-----7-7-3-3-5--|

 

Chorus:

G|------------------------------------|

D|------------------------------------|

A|7-7----5-5----xx--------------------|x3

E|------------------7-7--7-7p5-5-5-7--|

 

G|--------------|

D|--------------|

A|7-7----5-5-/--|

E|--------------|

 

Post-chorus:

G|-----------------------------------|

D|-----------------------------------|

A|----7-5---7-5-------7-5------------|x4

E|7-7-----7-----7p5h7-----7-7-3-3-5--|

 

verse:

G|-----------------------------------|

D|-----------------------------------|

A|----7-5---7-5-------7-5------------|x4

E|7-7-----7-----7p5h7-----7-7-3-3-5--|

 

Chorus:

G|------------------------------------|

D|------------------------------------|

A|7-7----5-5----xx--------------------|x3

E|------------------7-7--7-7p5-5-5-7--|

 

G|--------------|

D|--------------|

A|7-7----5-5-/--|

E|--------------|

 

Middle-8/Bridge:

G|------------------------------------------------|

D|------------------------------------------------|

A|------------------------------------------------|x4

E|--7h9-9-9--7h9-9-9--7-9/12---7h9-9-9--7h9-9-0~--|

 

instrumental:

G|-----------------------------------|

D|-----------------------------------|

A|----7-5---7-5-------7-5------------|x4

E|7-7-----7-----7p5h7-----7-7-3-3-5--|

 

verse:

G|-----------------------------------|

D|-----------------------------------|

A|----7-5---7-5-------7-5------------|x8

E|7-7-----7-----7p5h7-----7-7-3-3-5--|

 

Outro:

G|---------------------|

D|---------------75----|

A|75---75---75-----7\--|x8

E|--7\---7\---75-------|

Return to my Them Crooked Vultures Bass Tabs page

The Bass Tablature is Copyright its respective owners.

The creator of this page is in no way affiliated with Them Crooked Vultures. The creator of this page is simply a fan that made a page about Them Crooked Vultures Bass Tablature and more.

Sign Up For My Newsletter
Subscribe | Unsubscribe

Site Map | Disclaimer | Privacy Policy | Media Kit | Submissions/Corrections

Website © 2000-2014 mattsmusicpage.com. All rights reserved.

Legal & DMCA: Matt's Music Page has been providing lyrics and tabs in a legal way, paying royalties each year to a few organizations. Then, all lyrics and tabs were removed from the site. Now, there's a new owner to the site, which purchased it August 26, 2014, and he is in negotiation to obtain licensing from BMI at the moment. If you have a specific DMCA request -- please do not hesitate to contact me via the contact button on top. I will do my very best to keep this site fully legal.

Get our toolbar!

 

FENDER PRECISION P BASS GUITAR TIE OR HAT PIN PINBACK
$3.0
FENDER PRECISION P BASS GUITAR TIE OR HAT PIN PINBACK picture


1971 Guild Electric Guitars and Basses new anti-hum pickups on all Vtg Print Ad
$9.99
1971 Guild Electric Guitars and Basses new anti-hum pickups on all Vtg Print Ad picture


The Steinberger Spirit GT-PRO XT-2 headless bass guitar ad 8 x 11 advertisement
$3.98
The Steinberger Spirit GT-PRO XT-2 headless bass guitar ad 8 x 11 advertisement picture


The 1993 Rickenbacker 4004C 4004 Cheyenne bass guitar ad 8 x 11 advertisement
$3.98
The 1993 Rickenbacker 4004C 4004 Cheyenne bass guitar ad 8 x 11 advertisement picture


The Black Crowes Johnny Colt Washburn AB40 bass guitar ad 8 x 11 advertisement
$4.95
The Black Crowes Johnny Colt Washburn AB40 bass guitar ad 8 x 11 advertisement picture