Your One-Stop Source For
Music Lyrics
Bass and Guitar Tabs
and More...
>Music Lyrics Bass and Guitar Tabs

 

The Them Crooked Vultures Bass Tabs Are Below

Learn To Read Tab
Chords Handbook
Corrections & Additions
Get Official Tab
Them Crooked Vultures tabs @ 911Tabs

OK, should be about 99% right now!

 

00:11

G|---------------------|

D|---------------------|

A|--1--7p5--8p5--------|x4

E|3--3----6----6-------|

 

====

 

G|----------------79--|

D|---------------8----|

A|--1--7p5--8p5-------|x4

E|3--3----6----6------|

 

G|-----------------| -------------------------------------|

D|-------3---------| 3--------3--------3-x-3-x-3-3-3-333--|

A|-1-3p1---3p1-----|x2 --3p1------3p1-----------------------|

E|3-3---3-----3p1--| -----3p1------3p1--------------------|

 

G|-----------------| -------------------------------------|

D|-------3---------| 3--------3--------3-x-3-x-3-3-3-333--|

A|-1-3p1---3p1-----|x2 --3p1------3p1-----------------------|

E|3-3---3-----3p1--| -----3p1------3p1--------------------|

 

G|----------------79--|

D|---------------8----|

A|--1--7p5--8p5-------|x3

E|3--3----6----6------|

 

G|----------------79/---79/---79/---79/---79/---79/---79/---79--|

D|---------------8-----8-----8-----8-----8-----8-----8-----8----|

A|--1--7p5--8p5-------------------------------------------------|

E|3--3----6----6------------------------------------------------|

 

====

 

G|--------------- ------------------|

D|--------------- --------5-5-5-----|

A|---------------x3 55555555-5-5-555--|

E|0--3--5--7/10-- ------------------|

 

G|--------------- ------------------|

D|--------------- --------5-5-5-----|

A|---------------x3 55555555-5-5-555--|

E|0--3--5--7/10-- ------------------|

 

====

 

G|------------------------------------------------------------------|

D|------------------------------------------------------------------|

A|------3h5p3------------3-5-3----------3h5p3---------------7p5-----|x2

E|0--3--------5-3--0--3--------5--0--3--------5-3-000000-3h5---7p5--|

 

G|--------------- ----------------------------------|

D|--------------- ----------------------------------|

A|---------------x2 ------3h5p3---------------7p5-----|

E|0--3--5--7/10-- 0--3--------5-3-000000-3h5---7p5--|

 

G|------------------------------------------------------------------|

D|------------------------------------------------------------------|

A|------3h5p3------------3-5-3----------3h5p3---------------7p5-----|

E|0--3--------5-3--0--3--------5--0--3--------5-3-000000-3h5---7p5--|

 

====

 

G|------------------- ------------------|

D|------------------- --------5-5-5-----|

A|-------75-----910--x3 55555555-5-5-555--|

E|0--3--5--5-710----- ------------------|

 

G|------------------- ------------------|

D|------------------- --------5-5-5-----|

A|-------75-----910--x3 55555555-5-5-555--|

E|0--3--5--5-710----- ------------------|

 

====

 

G|-----------------------------------------------1---------1----1--|

D|-------------------3h5p3h5p3h5p3h5p3--------1h3-------1h3--1h3---|

A|3-3-3--3--3--1h3-3--------------------1-1-1------1-1-------------|

E|-----------------------------------------------------------------|

 

G|-----------------------------------------------------|

D|-------------5--3--1------------3-5--3-5-7-5-7-8--9--|

A|3-3-5-3--3-3----------3--1--3-5----------------------|

E|-----------------------------------------------------|

 

G|-------------------------------------------------------------------|

D|-------------------------------------------------------------------|

A|3-3-3-3-3-3-3-3-3-1-1-1-1-1-1-1-1----------------------------------|x2

E|----------------------------------3-3-3-3-3-3-3-3-3-1-3-3-3-1-3-1--|

 

G|---------------------------------|

D|---------------------------------|

A|3-3-3-3-3-3-3-3-1-1-1-1-1-1-1-1--|

E|---------------------------------|

====

 

G|--------------- ------------------|

D|--------------- --------5-5-5-----|

A|---------------x3 55555555-5-5-555--|

E|0--3--5--7/10-- ------------------|

 

G|--------------- ------------------|

D|--------------- --------5-5-5-----|

A|---------------x3 55555555-5-5-555--|

E|0--3--5--7/10-- ------------------|

 

====

 

G|------------------------------------------------------------------|

D|------------------------------------------------------------------|

A|------3h5p3------------3-5-3----------3h5p3---------------7p5-----|x2

E|0--3--------5-3--0--3--------5--0--3--------5-3-000000-3h5---7p5--|

 

G|--------------- ----------------------------------|

D|--------------- ----------------------------------|

A|---------------x2 ------3h5p3---------------7p5-----|

E|0--3--5--7/10-- 0--3--------5-3-000000-3h5---7p5--|

 

G|------------------------------------------------------------------|

D|------------------------------------------------------------------|

A|------3h5p3------------3-5-3----------3h5p3---------------7p5-----|

E|0--3--------5-3--0--3--------5--0--3--------5-3-000000-3h5---7p5--|

 

====

 

G|------------------- ------------------|

D|------------------- --------5-5-5-----|

A|-------75-----910--x3 55555555-5-5-555--|

E|0--3--5--5-710----- ------------------|

 

G|------------------- ------------------|

D|------------------- --------5-5-5-----|

A|-------75-----910--x3 55555555-5-5-555--|

E|0--3--5--5-710----- ------------------|

 

====

 

G|-----------------------------------------------1---------1----1--|

D|-------------------3h5p3h5p3h5p3h5p3--------1h3-------1h3--1h3---|

A|3-3-3--3--3--1h3-3--------------------1-1-1------1-1-------------|

E|-----------------------------------------------------------------|

 

G|-----------------------------------------------------|

D|-------------5--3--1------------3-5--3-5-7-5-7-8--9--|

A|3-3-5-3--3-3----------3--1--3-5----------------------|x2

E|-----------------------------------------------------|

 

G|-------------------------------------------------------------------|

D|-------------------------------------------------------------------|

A|3-3-3-3-3-3-3-3-3-3-3-3-3-3-3-3-3-7-7-7-7-7-7-7-7-7-7-7-7-7-7-7-7--|

E|-------------------------------------------------------------------|

 

G|-------------------------------------------------------------------|

D|-------------------------------------------------------------------|

A|3-3-3-3-3-3-3-3-3-1-1-1-1-1-1-1-1----------------------------------|x2

E|----------------------------------3-3-3-3-3-3-3-3-3-1-3-3-3-1-3-1--|

 

G|------------------------------------------------------------------------|

D|------------------------------------------------------------------------|

A|3-3-3-3-3-3-3-3-3-1-1-1-1-1-1-1-1------------------3----5----7----------|

E|----------------------------------3-3-3-3-3-3-3-3h5--5h7--7h8--8h10p8\--|

 

G|---------------------------------|

D|---------------------------------|

A|3-3-3-3-3-3-3-3-1-1-1-1-1-1-1-1--|

E|---------------------------------|

 

====

 

Nearly there...

G|----------------------- -------------------|

D|----------------------- -------------------|

A|-----------75-----910--x3 53353353-53-53-5---|

E|0-xx-3-xx-5--5-710----- -----------5--5-5--|

 

G|----------------------- ------------------|

D|----------------------- ------------------|

A|-----------75-----910--x3 5-5-5-5787587585--|

E|0-xx-3-xx-5--5-710----- ------------------|

 

G|----------------------- ----------|

D|----------------------- ----------|

A|-----------75-----910--x3 5-5-5-55--|

E|0-xx-3-xx-5--5-710----- ----------|

 

====

 

G|----------------79--|

D|---------------8----|

A|--1--7p5--8p5-------|x3

E|3--3----6----6------|

 

G|----------------79/---79/---79/---79/---79/---79/---79/---79/--|

D|---------------8-----8-----8-----8-----8-----8-----8-----8-----|

A|--1--7p5--8p5--------------------------------------------------|

E|3--3----6----6-------------------------------------------------|

Return to my Them Crooked Vultures Bass Tabs page

The Bass Tablature is Copyright its respective owners.

The creator of this page is in no way affiliated with Them Crooked Vultures. The creator of this page is simply a fan that made a page about Them Crooked Vultures Bass Tablature and more.

Sign Up For My Newsletter
Subscribe | Unsubscribe

Site Map | Disclaimer | Privacy Policy | Media Kit | Submissions/Corrections

Website © 2000-2014 mattsmusicpage.com. All rights reserved.

Legal & DMCA: Matt's Music Page has been providing lyrics and tabs in a legal way, paying royalties each year to a few organizations. Then, all lyrics and tabs were removed from the site. Now, there's a new owner to the site, which purchased it August 26, 2014, and he is in negotiation to obtain licensing from BMI at the moment. If you have a specific DMCA request -- please do not hesitate to contact me via the contact button on top. I will do my very best to keep this site fully legal.

Get our toolbar!

 

Vintage ANGEL Collector PLATE Musical Harp Trumpet 10" EXC
$4.59
Vintage ANGEL Collector PLATE Musical Harp Trumpet 10


VNTG 8" ANGEL MUSIC BOX SILENT NIGHT ITALY GUMPS WOOD BASE PLASTIC HAND PAINTED
$29.99
VNTG 8


Vintage White Porcelain Seashell Hinged Trinket Music Box Japan Sankyo Mechanism
$29.99
Vintage White Porcelain Seashell Hinged Trinket Music Box Japan Sankyo Mechanism picture


Spellbound ARA Record Vintage Hitchcock Music Miklos Rozsa Collection Set of 4
$15.0
Spellbound ARA Record Vintage Hitchcock Music Miklos Rozsa Collection Set of 4  picture


RARE VINTAGE SANTA WAGON MUSICAL BUMPING DRIVING BLINKING LIGHTS CAR HONG KONG
$56.95
RARE VINTAGE SANTA WAGON MUSICAL BUMPING DRIVING BLINKING LIGHTS CAR HONG KONG picture