Your One-Stop Source For
Music Lyrics
Bass and Guitar Tabs
and More...
Music Lyrics Bass and Guitar Tabs

 

The Tabs Are Below

Learn To Read Tab
Chords Handbook
Corrections & Additions
Get Official Tab
The Ataris tabs @ 911Tabs

YOU NEED A HUG - The Ataris

--------------------------------------------------------------------------

 

 

Intro x 2

e|-----------------------------------------------------------------------|

B|-----------------------------------------------------------------------|

G|-5-5-5/4-5-5-5/4-5-5-5-5/7-7-7-7-7-10-10-10-10-9-9-9-9-7-7-7-7-5-5-5-5-|

D|-----------------------------------------------------------------------|

A|-3-3-3/2-3-3-3/2-3-3-3-3/5-5-5-5-5--8--8--8--8-7-7-7-7-5-5-5-5-3-3-3-3-|

E|-----------------------------------------------------------------------|

 

e|-----------------------------------------------------------------------|

B|-----------------------------------------------------------------------|

G|-12-12-12-12-10-10-10-10-9-9-9-9-5-5-5-5-7-7-7-7-7-7-5-5-4-4-4-4-4-7---|

D|-----------------------------------------------------------------------|

A|-10-10-10-10-8--8--8--8--7-7-7-7-3-3-3-3-5-5-5-5-5-5-3-3-2-2-2-2-2-5---|

E|-----------------------------------------------------------------------|

 

Verse

e|-----------------------------------------------------------------------|

B|-----------------------------------------------------------------------|

G|-5-x-x-x-x-x-x-x-x-----------------------------------------------------|

D|-5-x-x-x-x-x-x-x-x-7-x-x-x-x-x-x-x-x-5-x-x-x-x-x-x-x-x-3-x-x-x-x-x-x-x-|

A|-3-x-x-x-x-x-x-x-x-7-x-x-x-x-x-x-x-x-5-x-x-x-x-x-x-x-x-3-x-x-x-x-x-x-x-|

E|-------------------5-x-x-x-x-x-x-x-x-3-x-x-x-x-x-x-x-x-1-x-x-x-x-x-x-x-|

 

e|-----------------------------------------------------------------------|

B|-----------------------------------------------------------------------|

G|-5-x-x-x-x-x-x-x-x-----------------------------------------------------|

D|-5-x-x-x-x-x-x-x-x-7-x-x-x-x-x-x-x-x-5-x-x-x-x-x-x-x-x-3/5-5-5-5-5-5-5-|

A|-3-x-x-x-x-x-x-x-x-7-x-x-x-x-x-x-x-x-5-x-x-x-x-x-x-x-x-3/5-5-5-5-5-5-5-|

E|-------------------5-x-x-x-x-x-x-x-x-3-x-x-x-x-x-x-x-x-1/3-3-3-3-3-3-3-|

 

Pre Chorus

e|-----------------------------------------------------------------------|

B|-----------------------------------------------------------------------|

G|-----------------------------------------------------------------------|

D|-7-7-7--7-7-7--5-5-5--5-5-5--3-3-3-3-3-3-3-3-3-3-3-3-5-5-5-5-5-5-------|

A|-7-7-7--7-7-7--5-5-5--5-5-5--3-3-3-3-3-3-3-3-3-3-3-3-5-5-5-5-5-5-------|

E|-5-5-5--5-5-5--3-3-3--3-3-3--0-0-0-0-0-0-1-1-1-1-1-1-3-3-3-3-3-3-------|

* * * * * * * *

 

e|-----------------------------------------------------------------------|

B|-----------------------------------------------------------------------|

G|-----------------------------------------------------------------------|

D|-7-7-7--7-7-7--5-5-5--5-5-5-3-3-3-3-3-3-3-3-3-3-3-3-3-3-3-3-3-3-3-3x-5~|

A|-7-7-7--7-7-7--5-5-5--5-5-5-3-3-3-3-3-3-3-3-3-3-3-3-3-3-3-3-3-3-3-3x-5~|

E|-5-5-5--5-5-5--3-3-3--3-3-3-0-0-0-0-0-0-0-0-1-1-1-1-1-1-1-1-1-1-1-1x-3~|

* * * * * * * *

 

Chorus x 2

e|-----------------------------------------------------------------------|

B|-----------------------------------------------------------------------|

G|-5-5-5-5-5-5-5-5-------------------------------------------------------|

D|-5-5-5-5-5-5-5-5-5-5-5-5-5-5-5-5-7-7-7-7-5-5-5-5-3-3-3-3-3-3-3-3-------|

A|-3-3-3-3-3-3-3-3-5-5-5-5-5-5-5-5-7-7-7-7-5-5-5-5-3-3-3-3-3-3-3-3-------|

E|-----------------3-3-3-3-3-3-3-3-5-5-5-5-3-3-3-3-1-1-1-1-1-1-1-1-------|

 

 

Verse (without the muted notes)

 

Pre Chorus

 

Chorus x 2

 

Bridge

e|-----------------------------------------------------------------------|

B|-----------------------------------------------------------------------|

G|-5~------------------5------5~-------5-4-------------------------------|

D|-5~---7~----3~---5~--5--5~--5~---7~------5-33333333333333-555555555555-|

A|-3~---7~----3~---5~--3--5~--3~---7~--------33333333333333-555555555555-|

E|------5~----1~---3~-----3~-------5~--------11111111111111-333333333333-|

 

Chorus x 2

 

Finish

e|-----------------------------------------------------------------------|

B|-----------------------------------------------------------------------|

G|-5-5-5-5-5-5-5-5-------------------------------------------------------|

D|-5-5-5-5-5-5-5-5-5-5-5-5-5-5-5-5-7-7-7-7-5-5-5-5-3-3-3-3-3-3-3-3-------|

A|-3-3-3-3-3-3-3-3-5-5-5-5-5-5-5-5-7-7-7-7-5-5-5-5-3-3-3-3-3-3-3-3-------|

E|-----------------3-3-3-3-3-3-3-3-5-5-5-5-3-3-3-3-1-1-1-1-1-1-1-1-------|

 

e|-----------------------------------------------------------------------|

B|-----------------------------------------------------------------------|

G|-5-5-5-5-5-5-5-5-------------------------------------------------5~~---|

D|-5-5-5-5-5-5-5-5-5-5-5-5-5-5-5-5-7-7-7-7-5-5-5-5-3-3-3-3-3-3-3-3-5~~---|

A|-3-3-3-3-3-3-3-3-5-5-5-5-5-5-5-5-7-7-7-7-5-5-5-5-3-3-3-3-3-3-3-3-3~~---|

E|-----------------3-3-3-3-3-3-3-3-5-5-5-5-3-3-3-3-1-1-1-1-1-1-1-1-------|

 

 

Return to my The Ataris tabs page

The Tablature is Copyright its respective owners.

Sign Up For My Newsletter
Subscribe | Unsubscribe

Site Map | Disclaimer | Privacy Policy | Media Kit | Submissions/Corrections

Website © 2000-2014 mattsmusicpage.com. All rights reserved.

Legal & DMCA: Matt's Music Page has been providing lyrics and tabs in a legal way, paying royalties each year to a few organizations. Then, all lyrics and tabs were removed from the site. Now, there's a new owner to the site, which purchased it August 26, 2014, and he is in negotiation to obtain licensing from BMI at the moment. If you have a specific DMCA request -- please do not hesitate to contact me via the contact button on top. I will do my very best to keep this site fully legal.

Get our toolbar!