Your One-Stop Source For
Music Lyrics
Bass and Guitar Tabs
and More...
>Music Lyrics Bass and Guitar Tabs

 

The Tabs Are Below

Learn To Read Tab
Chords Handbook
Corrections & Additions
Get Official Tab
The Ataris tabs @ 911Tabs

Song For a Mix Tape - The*Ataris

-------------------------------------------------------------------------------

by: synchrony7@hotmail.com

 

Man this is such an awesome song. This is the basics, which atariboy115 told

me but was too lazy to tab it out, so I can't really take the credit.

 

e|-----------------------------------------------------------------------------|

B|-----------------------------------------------------------------------------|

G|-----------------------------------------------------------------------------|

D|----------7---------------------------4-------------------------2------------|

A|----------7---------------------------4-------------------------2------------|

E|----------5---------------------------2-------------------------0------------|

To - day I made you a mix-tape and I decorated it with lots of stars.

 

e|-----------------------------------------------------------------------------|

B|-----------------------------------------------------------------------------|

G|------------------------7------9---------------------------------------------|

D|------------------------7------9---------------------------------------------|

A|------------------------5------7---------------------------------------------|

E|-----------------------------------------------------------------------------|

It had all my favorite songs.

 

e|-----------------------------------------------------------------------------|

B|-----------------------------------------------------------------------------|

G|-----------------------------------------------------------------------------|

D|----------7------------------------4-----------------------------------------|

A|----------7------------------------4-----------------------------------------|

E|----------5------------------------2-----------------------------------------|

There was Jawbreaker, and Mineral, Built to Spill, and The Descendents.

 

e|-----------------------------------------------------------------------------|

B|-----------------------------------------------------------------------------|

G|----------------------------7--------9---------------------------------------|

D|-2--------------------------7--------9---------------------------------------|

A|-2--------------------------5--------7---------------------------------------|

E|-0---------------------------------------------------------------------------|

Hell, I even put one of ours on it.

 

e|-----------------------------------------------------------------------------|

B|-----------------------------------------------------------------------------|

G|-----------------------------------------------------------------------------|

D|-4----------------------4-----------------------------2----------------------|

A|-4----------------------4-----------------------------2----------------------|

E|-2----------------------1-----------------------------0----------------------|

Do you want to be my girl? 'Cuz you really rock my world

 

e|-----------------------------------------------------------------------------|

B|-----------------------------------------------------------------------------|

G|------------------------7---9--------7-------------9-------------------------|

D|------------------------7---9--------7-------------9-------------------------|

A|------------------------5---7--------5-------------7-------------------------|

E|-----------------------------------------------------------------------------|

And you always make me sm--ile. But what will you do

 

e|-----------------------------------------------------------------------------|

B|-----------------------------------------------------------------------------|

G|----------------------------------------------7-------------9----------------|

D|----------------7-------7------4--------------7-------------9-----------7----|

A|----------------7-------7------4--------------5-------------7-----------7----|

E|----------------5-------4------2----------------------------------------5----|

When I'm washed up like Motley Crue? Will you still love me when I sell out?

 

Any corrections, comments, or questions, just email me. Wanna trade Ataris tabs?

I have some more, just give me an email.

 

 

Return to my The Ataris tabs page

The Tablature is Copyright its respective owners.

Sign Up For My Newsletter
Subscribe | Unsubscribe

Site Map | Disclaimer | Privacy Policy | Media Kit | Submissions/Corrections

Website © 2000-2014 mattsmusicpage.com. All rights reserved.

Legal & DMCA: Matt's Music Page has been providing lyrics and tabs in a legal way, paying royalties each year to a few organizations. Then, all lyrics and tabs were removed from the site. Now, there's a new owner to the site, which purchased it August 26, 2014, and he is in negotiation to obtain licensing from BMI at the moment. If you have a specific DMCA request -- please do not hesitate to contact me via the contact button on top. I will do my very best to keep this site fully legal.

Get our toolbar!

 

® Elvis Presley Figure with Bars & Vinyl Record Stage
$23.99
® Elvis Presley Figure with Bars & Vinyl Record Stage picture


THE LONGINES SYMPHONETTE "SENTIMENTAL JOURNEY" VINTAGE VINYL ALBUM RECORD BOWL
$19.99
 THE LONGINES SYMPHONETTE


African Ghana Medley Vinyl Phono Record Beads (8mm) Ghana
$15.0
African Ghana Medley Vinyl Phono Record Beads (8mm)  Ghana picture


African Yellow Vinyl Phono Record Beads (6mm) Ghana
$12.0
African Yellow Vinyl Phono Record Beads (6mm)  Ghana picture


African Vintage Vinyl Phono Record Beads (7mm - Set of 4) Ghana
$69.0
African Vintage Vinyl Phono Record Beads (7mm - Set of 4)  Ghana picture