Your One-Stop Source For
Music Lyrics
Bass and Guitar Tabs
and More...
Music Lyrics Bass and Guitar Tabs

 

The Tabs Are Below

Learn To Read Tab
Chords Handbook
Corrections & Additions
Get Official Tab
The Ataris tabs @ 911Tabs

SLEEPY - The Ataris

-------------------------------------------------------------------------------

 

By: Gary(TheAtaris07@aol.com)

 

PM - palm mute

7x

7x - mute after strumming

5x

 

Verse: "It's frivilous, it's pointless..."

e|---------------------------------------------------------------------------|

B|---------------------------------------------------------------------------|

G|------------------------4-4-4-4-4-7-7-7-6----------------------------------|

D|7-7-7-7-7-7-4-4-4-2-2-2-4-4-4-4-4-7-7-7-6-7--7-7-7-7-7-4-4-4-2-2-2---------|

A|7-7-7-7-7-7-4-4-4-2-2-2-2-2-2-2-2-5-5-5-4-7--7-7-7-7-7-4-4-4-2-2-2---------|

E|5-5-5-4-4-4-2-2-2-0-0-0-------------------5--5-5-4-4-4-2-2-2-0-0-0---------|

 

Verse Cont'd:

e|---------------------------------------------------------------------------|

B|---------------------------------------------------------------------------|

G|4-4-4-4-4-7-7-7-6----------------------------------------------------------|

D|4-4-4-4-4-7-7-7-6-7--------------------------------------------------------|

A|2-2-2-2-2-5-5-5-4-7--------------------------------------------------------|

E|------------------5--------------------------------------------------------|

 

Next Part:

e|---------------------------------------------------------------------------|

B|---------------------------------------------------------------------------|

G|---------------------------------------------------------------------------|

D|7-7-7-7-7-7-7-7-7-7-7-7-7-7-7-7-7-7-7-7-7-7-7-7-7-7-7-7-7-7-7x--7-7-7-7----|

A|7-7-7-7-7-7-7-7-7-7-7-7-7-7-7-7-7-7-7-7-7-7-7-7-7-7-7-7-7-7-7x--7-7-7-7----|

E|5-5-5-5-5-5-5-5-5-5-5-5-5-5-5-5-5-5-5-5-5-5-5-5-5-5-5-5-5-5-5x--5-5-5-5----|

PM............... ................. .................

 

Part After That: (2x) "Time sure does fly..."

e|---------------------------------------------------------------------------|

B|---------------------------------------------------------------------------|

G|--------------------------------------------------7-7-7-7-7-7-7-7-7-7-4----|

D|7-7-7-7-7-7-7-7-7-7-7-7-7-7-4-4-4-4-4-4-4-4-4-2-2-7-7-7-7-7-7-7-7-7-7-4----|

A|7-7-7-7-7-7-7-7-7-7-7-7-7-7-4-4-4-4-4-4-4-4-4-2-2-5-5-5-5-5-5-5-5-5-5-2----|

E|5-5-5-5-5-5-5-5-5-5-5-5-5-5-2-2-2-2-2-2-2-2-2-0-0--------------------------|

PM..................... ........... ...............

 

Part After That Cont'd:

e|---------------------------------------------------------------------------|

B|---------------------------------------------------------------------------|

G|4-4-4-4-4-4-7-7-9-9--------------------------------------------------------|

D|4-4-4-4-4-4-7-7-9-9--------------------------------------------------------|

A|2-2-2-2-2-2-5-5-7-7--------------------------------------------------------|

E|---------------------------------------------------------------------------|

PM.........

 

Chorus: (Start with pickslide) "Why did I act like I..."

e|---------------------------------------------------------------------------|

B|---------------------------------------------------------------------------|

G|------------------------7-7-------9-9-9-9-------------------------7-7-7----|

D|7-7-7-7-7-7-4-4-4-2-2-2-7-7-9-9-9-9-9-9-9-7-7-7-7-7-7-4-4-4-2-2-2-7-7-7----|

A|7-7-7-7-7-7-4-4-4-2-2-2-5-5-9-9-9-7-7-7-7-7-7-7-7-7-7-4-4-4-2-2-2-5-5-5----|

E|5-5-5-4-4-4-2-2-2-0-0-0-----7-7-7---------5-5-5-4-4-4-2-2-2-0-0-0----------|

 

Chorus Cont'd:

e|---------------------------------------------------------------------------|

B|---------------------------------------------------------------------------|

G|4-4-4-7-7-7-9-9-9----------------------------------------------------------|

D|4-4-4-7-7-7-9-9-9----------------------------------------------------------|

A|2-2-2-5-5-5-7-7-7----------------------------------------------------------|

E|---------------------------------------------------------------------------|

 

End On:

e|-------|

B|-------|

G|-------|

D|--7----|

A|--7----|

E|--5----|

 

 

Return to my The Ataris tabs page

The Tablature is Copyright its respective owners.

Sign Up For My Newsletter
Subscribe | Unsubscribe

Site Map | Disclaimer | Privacy Policy | Media Kit | Submissions/Corrections

Website © 2000-2014 mattsmusicpage.com. All rights reserved.

Get our toolbar!