Your One-Stop Source For
Music Lyrics
Bass and Guitar Tabs
and More...
Music Lyrics Bass and Guitar Tabs

 

The Tabs Are Below

Learn To Read Tab
Chords Handbook
Corrections & Additions
Get Official Tab
The Ataris tabs @ 911Tabs

Band: The Ataris

Song: Radio #2

Album: So Long, Astoria

 

Alright, Guitar 1 and 2 are separated

 

GUITAR 1:

-----------------

Intro/Chorus:

e|---------------------------------------------------------------------------|

B|---------------------------------------------------------------------------|

G|4-4-4-4-4-4-4-4-------------------------------------------------4-4-4-4----|

D|4-4-4-4-4-4-4-4-2-2-2-2-2-2-2-2-6-6-6-6-6-6-6-6-2-2-2-2-2-2-2-2-4-4-4-4----|

A|2-2-2-2-2-2-2-2-2-2-2-2-2-2-2-2-6-6-6-6-6-6-6-6-2-2-2-2-2-2-2-2-2-2-2-2----|

E|----------------0-0-0-0-0-0-0-0-4-4-4-4-4-4-4-4-0-0-0-0-0-0-0-0------------|

 

Cont'd:

e|---------------------------------------------------------------------------|

B|---------------------------------------------------------------------------|

G|4-4-4-4--------------------------------------4-4-4-4-4-4-4-4---------------|

D|4-4-4-4-6-6-6-6-4-4-4-4-2-2-2-2-2-2-2-2-2~---4-4-4-4-4-4-4-4-2-2-2-2-2-2-2-|

A|1-1-1-1-6-6-6-6-4-4-4-4-2-2-2-2-2-2-2-2-2~---2-2-2-2-2-2-2-2-2-2-2-2-2-2-2-|

E|--------4-4-4-4-2-2-2-2-0-0-0-0-0-0-0-0-0~-------------------0-0-0-0-0-0-0-|

 

Cont'd:

e|---------------------------------------------------------------------------|

B|---------------------------------------------------------------------------|

G|--------------------------------4-4-4-4-4-4-4-4----------------------------|

D|6-6-6-6-6-6-6-6-4-4-4-4-4-4-4-4-4-4-4-4-4-4-4-4-6-6-6-6-4-4-4-4-2-2-2-2-2-2|

A|6-6-6-6-6-6-6-6-4-4-4-4-4-4-4-4-2-2-2-2-1-1-1-1-6-6-6-6-4-4-4-4-2-2-2-2-2-2|

E|4-4-4-4-4-4-4-4-2-2-2-2-2-2-2-2-----------------4-4-4-4-2-2-2-2-0-0-0-0-0-0|

 

Cont'd:

e|---------------------------------------------------------------------------|

B|---------------------------------------------------------------------------|

G|---------------------------------------------------------------------------|

D|2-2-2-2-2-2-2-2-2-2--------------------------------------------------------|

A|2-2-2-2-2-2-2-2-2-2--------------------------------------------------------|

E|0-0-0-0-0-0-0-0-0-0--------------------------------------------------------|

 

Pre-Chorus: "This is the starting..."

e|---------------------------------------------------------------------------|

B|---------------------------------------------------------------------------|

G|------------------------------------------------4-4-4-4-4-4-4-4------------|

D|4-4-4-4-4-4-4-4-6-6-6-6-6-6-6-6-2-2-2-2-2-2-2-2-4-4-4-4-4-4-4-4------------|

A|4-4-4-4-4-4-4-4-6-6-6-6-6-6-6-6-2-2-2-2-2-2-2-2-2-2-2-2-2-2-2-2------------|

E|2-2-2-2-2-2-2-2-4-4-4-4-4-4-4-4-0-0-0-0-0-0-0-0----------------------------|

 

PC Continued:

e|---------------------------------------------------------------------------|

B|---------------------------------------------------------------------------|

G|------------------------4-4-4-4--------------------------------------------|

D|4-4-4-4-4-4-4-4-6-6-6-6-4-4-4-4-2~-----------------------------------------|

A|4-4-4-4-4-4-4-4-6-6-6-6-2-2-2-2-2~-----------------------------------------|

E|2-2-2-2-3-3-3-3-4-4-4-4---------0~-----------------------------------------|

 

Repeat Chorus

 

Solo: (Play the Chorus once)

 

Verse: "Listen to peace signs..."

e|---------------------------------------------------------------------------|

B|---------------------------------------------------------------------------|

G|4~-------------------------------------------------------------------------|

D|4~------------------------------2-2-2-2-2-2-2-2-2-2-2-2-2-2-2-2------------|

A|2~------------------------------2-2-2-2-2-2-2-2-2-2-2-2-2-2-2-2------------|

E|--------------------------------0-0-0-0-0-0-0-0-0-0-0-0-0-0-0-0------------|

There's some weird effect

in this space here.....it's a mellotron

 

Intro/Chorus

 

Pre-Chorus

 

Chorus

 

Bridge: "Look outside your..." (Come in on 2nd bar)

e|---------------------------------------------------------------------------|

B|---------------------------------------------------------------------------|

G|----------------4-4-4-4-4-4-4-4--------------------------------------------|

D|6-6-6-6-6-6-6-6-4-4-4-4-4-4-4-4-4-4-4-4-4-4-4-4-4-4-4-4-4-4-4-4x-----------|

A|6-6-6-6-6-6-6-6-2-2-2-2-2-2-2-2-4-4-4-4-4-4-4-4-4-4-4-4-4-4-4-4x-----------|

E|4-4-4-4-4-4-4-4-----------------2-2-2-2-2-2-2-2-2-2-2-2-2-2-2-2x-----------|

...............................

 

Repeat Chorus

 

Repeat Solo: (2x)

 

End On:

e|-------|

B|-------|

G|-------|

D|--2~---|

A|--2~---|

E|--0~---|

 

GUITAR 2:

Intro/Chorus: "Meet me at midnight..."

e|---------------------------------------------------------------------------|

B|---------------------------------------------------------------------------|

G|4-4-4-4-4-4-4-4-------------------------------------------------4-4-4-4----|

D|4-4-4-4-4-4-4-4-2-2-2-2-2-2-2-2-6-6-6-6-6-6-6-6-2-2-2-2-2-2-2-2-x-x-x-x----|

A|2-2-2-2-2-2-2-2-2-2-2-2-2-2-2-2-6-6-6-6-6-6-6-6-2-2-2-2-2-2-2-2-2-2-2-2----|

E|----------------0-0-0-0-0-0-0-0-4-4-4-4-4-4-4-4-0-0-0-0-0-0-0-0------------|

 

Cont'd:

e|---------------------------------------------------------------------------|

B|---------------------------------------------------------------------------|

G|6-6-6-6-8-8-8-8-11-11-11-11-9-9-9-9-9-9-9-9-8~-----------------------------|

D|x-x-x-x-x-x-x-x--x--x--x--x-x-x-x-x-x-x-x-x-x------------------------------|

A|4-4-4-4-6-6-6-6--9--9--9--9-7-7-7-7-7-7-7-7-6~-----------------------------|

E|---------------------------------------------------------------------------|

 

Cont'd:

e|---------------------------------------------------------------------------|

B|---------------------------------------------------------------------------|

G|4-4-4-4-4-4-4-4-------------------------------------------------4-4-4-4----|

D|4-4-4-4-4-4-4-4-2-2-2-2-2-2-2-2-6-6-6-6-6-6-6-6-4-4-4-4-4-4-4-4-x-x-x-x----|

A|2-2-2-2-2-2-2-2-2-2-2-2-2-2-2-2-6-6-6-6-6-6-6-6-4-4-4-4-4-4-4-4-2-2-2-2----|

E|----------------0-0-0-0-0-0-0-0-4-4-4-4-4-4-4-4-2-2-2-2-2-2-2-2------------|

 

Cont'd:

e|---------------------------------------------------------------------------|

B|---------------------------------------------------------------------------|

G|6-6-6-6-8-8-8-8-11-11-11-11-9-9-9-9-9-9-9-9-8~-----------------------------|

D|x-x-x-x-x-x-x-x--x--x--x--x-x-x-x-x-x-x-x-x-x------------------------------|

A|4-4-4-4-6-6-6-6--9--9--9--9-7-7-7-7-7-7-7-7-6~-----------------------------|

E|---------------------------------------------------------------------------|

 

Pre Chorus: "This is the starting..."

e|---------------------------------------------------------------------------|

B|---------------------------------------------------------------------------|

G|------------------------------------------------4-4-4-4-4-4-4-4------------|

D|4-4-4-4-4-4-4-4-6-6-6-6-6-6-6-6-2-2-2-2-2-2-2-2-4-4-4-4-4-4-4-4------------|

A|4-4-4-4-4-4-4-4-6-6-6-6-6-6-6-6-2-2-2-2-2-2-2-2-2-2-2-2-2-2-2-2------------|

E|2-2-2-2-2-2-2-2-4-4-4-4-4-4-4-4-0-0-0-0-0-0-0-0----------------------------|

 

PC Cont'd:

e|---------------------------------------------------------------------------|

B|---------------------------------------------------------------------------|

G|------------------------4-4-4-4--------------------------------------------|

D|4-4-4-4-4-4-4-4-6-6-6-6-4-4-4-4-2~-----------------------------------------|

A|4-4-4-4-4-4-4-4-6-6-6-6-2-2-2-2-2~-----------------------------------------|

E|2-2-2-2-3-3-3-3-4-4-4-4---------0~-----------------------------------------|

 

2nd Chorus: "You're always..."

e|---------------------------------------------------------------------------|

B|---------------------------------------------------------------------------|

G|4-4-4-4-4-4-4-4-------------------------------------------------4-4-4-4----|

D|4-4-4-4-4-4-4-4-2-2-2-2-2-2-2-2-6-6-6-6-6-6-6-6-2-2-2-2-2-2-2-2-x-x-x-x----|

A|2-2-2-2-2-2-2-2-2-2-2-2-2-2-2-2-6-6-6-6-6-6-6-6-2-2-2-2-2-2-2-2-2-2-2-2----|

E|----------------0-0-0-0-0-0-0-0-4-4-4-4-4-4-4-4-0-0-0-0-0-0-0-0------------|

 

 

e|---------------------------------------------------------------------------|

B|---------------------------------------------------------------------------|

G|4-4-4-4-4-4-4-4-4-4-4-4-9-9-9-9-9-9-9-9-8-8-8-8-8-8-8-8--------------------|

D|x-x-x-x-x-x-x-x-x-x-x-x-x-x-x-x-x-x-x-x-x-x-x-x-x-x-x-x--------------------|

A|2-2-2-2-2-2-2-2-2-2-2-2-7-7-7-7-7-7-7-7-6-6-6-6-6-6-6-6--------------------|

E|---------------------------------------------------------------------------|

 

 

e|---------------------------------------------------------------------------|

B|---------------------------------------------------------------------------|

G|4-4-4-4-4-4-4-4-------------------------------------------------4-4-4-4----|

D|4-4-4-4-4-4-4-4-2-2-2-2-2-2-2-2-6-6-6-6-6-6-6-6-4-4-4-4-4-4-4-4-x-x-x-x----|

A|2-2-2-2-2-2-2-2-2-2-2-2-2-2-2-2-6-6-6-6-6-6-6-6-4-4-4-4-4-4-4-4-2-2-2-2----|

E|----------------0-0-0-0-0-0-0-0-4-4-4-4-4-4-4-4-2-2-2-2-2-2-2-2------------|

 

 

e|---------------------------------------------------------------------------|

B|---------------------------------------------------------------------------|

G|6-6-6-6-8-8-8-8-9-9-9-9-9-9-9-9-9-9-9-9-9-9-9-9-9-9-9-9--------------------|

D|x-x-x-x-x-x-x-x-x-x-x-x-x-x-x-x-x-x-x-x-x-x-x-x-x-x-x-x--------------------|

A|4-4-4-4-6-6-6-6-7-7-7-7-7-7-7-7-7-7-7-7-7-7-7-7-7-7-7-7--------------------|

E|---------------------------------------------------------------------------|

 

Solo:

e|---------------------------------------------------------------------------|

B|---------------------------------------------------------------------------|

G|8---8---11---8---8---8---6---6---8---8---11---8---8---8---6---6------------|

D|--9---9----9---9---9---9---9---9---9---9----9---9---9---9---9---9----------|

A|---------------------------------------------------------------------------|

E|---------------------------------------------------------------------------|

 

Solo Cont'd:

e|---------------------------------------------------------------------------|

B|---------------------------------------------------------------------------|

G|8---8---6---6---8---8---11---11---9---9---9---9---8~-----------------------|

D|--9---9---9---9---9---9----9----9---9---9---9---9--------------------------|

A|---------------------------------------------------------------------------|

E|---------------------------------------------------------------------------|

 

Verse: "Listen to peace signs..."

e|---------------------------------------------------------------------------|

B|---------------------------------------------------------------------------|

G|---------------------------------------------------------------------------|

D|--------------------2-2-2-2-2-2-2-2-2-2-2-2-2-2-2-2------------------------|

A|--------------------2-2-2-2-2-2-2-2-2-2-2-2-2-2-2-2------------------------|

E|Feedback>>>>--------0-0-0-0-0-0-0-0-0-0-0-0-0-0-0-0------------------------|

 

Verse Cont'd:

e|---------------------------------------------------------------------------|

B|---------------------------------------------------------------------------|

G|4-4-4-4-4-4-4-4-------------------------------------------------4-4-4-4----|

D|4-4-4-4-4-4-4-4-2-2-2-2-2-2-2-2-6-6-6-6-6-6-6-6-4-4-4-4-4-4-4-4-x-x-x-x----|

A|2-2-2-2-2-2-2-2-2-2-2-2-2-2-2-2-6-6-6-6-6-6-6-6-4-4-4-4-4-4-4-4-2-2-2-2----|

E|----------------0-0-0-0-0-0-0-0-4-4-4-4-4-4-4-4-2-2-2-2-2-2-2-2------------|

 

Verse Cont'd:

e|---------------------------------------------------------------------------|

B|---------------------------------------------------------------------------|

G|6-6-6-6-8-8-8-8-11-11-11-11-9-9-9-9-9-9-9-9-8-8-8-8-8-8-8-8----------------|

D|x-x-x-x-x-x-x-x--x--x--x--x-x-x-x-x-x-x-x-x-x-x-x-x-x-x-x-x----------------|

A|4-4-4-4-6-6-6-6--9--9--9--9-7-7-7-7-7-7-7-7-6-6-6-6-6-6-6-6----------------|

E|---------------------------------------------------------------------------|

 

Repeat Pre-Chorus

 

Next Verse: "You're always..."

e|---------------------------------------------------------------------------|

B|---------------------------------------------------------------------------|

G|4-4-4-4-4-4-4-4-------------------------------------------------4-4-4-4----|

D|4-4-4-4-4-4-4-4-2-2-2-2-2-2-2-2-6-6-6-6-6-6-6-6-2-2-2-2-2-2-2-2-x-x-x-x----|

A|2-2-2-2-2-2-2-2-2-2-2-2-2-2-2-2-6-6-6-6-6-6-6-6-2-2-2-2-2-2-2-2-2-2-2-2----|

E|----------------0-0-0-0-0-0-0-0-4-4-4-4-4-4-4-4-0-0-0-0-0-0-0-0------------|

 

Cont'd:

e|---------------------------------------------------------------------------|

B|---------------------------------------------------------------------------|

G|4-4-4-4-4-4-4-4-4-4-4-4-9-9-9-9-9-9-9-9-8-8-8-8-8-8-8-8--------------------|

D|x-x-x-x-x-x-x-x-x-x-x-x-x-x-x-x-x-x-x-x-x-x-x-x-x-x-x-x--------------------|

A|2-2-2-2-2-2-2-2-2-2-2-2-7-7-7-7-7-7-7-7-6-6-6-6-6-6-6-6--------------------|

E|---------------------------------------------------------------------------|

 

Cont'd:

e|---------------------------------------------------------------------------|

B|---------------------------------------------------------------------------|

G|4-4-4-4-4-4-4-4-------------------------------------------------4-4-4-4----|

D|4-4-4-4-4-4-4-4-2-2-2-2-2-2-2-2-6-6-6-6-6-6-6-6-4-4-4-4-4-4-4-4-x-x-x-x----|

A|2-2-2-2-2-2-2-2-2-2-2-2-2-2-2-2-6-6-6-6-6-6-6-6-4-4-4-4-4-4-4-4-2-2-2-2----|

E|----------------0-0-0-0-0-0-0-0-4-4-4-4-4-4-4-4-2-2-2-2-2-2-2-2------------|

 

Cont'd:

e|---------------------------------------------------------------------------|

B|---------------------------------------------------------------------------|

G|6-6-6-6-8-8-8-8-11-11-11-11-9-9-9-9-9-9-9-9-9-9-9-9-9-9-9-9----------------|

D|x-x-x-x-x-x-x-x--x--x--x--x-x-x-x-x-x-x-x-x-x-x-x-x-x-x-x-x----------------|

A|4-4-4-4-6-6-6-6--9--9--9--9-7-7-7-7-7-7-7-7-7-7-7-7-7-7-7-7----------------|

E|---------------------------------------------------------------------------|

 

Bridge: "Look outside your..."

e|---------------------------------------------------------------------------|

B|---------------------------------------------------------------------------|

G|8---8---9---8---8---8---11---8---6---6---6---6---9---9---8---9-------------|

D|--9---9---9---9---9---9----9---9---9---9---9---9---9---9---9---9-----------|

A|---------------------------------------------------------------------------|

E|---------------------------------------------------------------------------|

 

Next Verse:

e|---------------------------------------------------------------------------|

B|---------------------------------------------------------------------------|

G|4-4-4-4-4-4-4-4-------------------------------------------------4-4-4-4----|

D|4-4-4-4-4-4-4-4-2-2-2-2-2-2-2-2-6-6-6-6-6-6-6-6-2-2-2-2-2-2-2-2-x-x-x-x----|

A|2-2-2-2-2-2-2-2-2-2-2-2-2-2-2-2-6-6-6-6-6-6-6-6-2-2-2-2-2-2-2-2-2-2-2-2----|

E|----------------0-0-0-0-0-0-0-0-4-4-4-4-4-4-4-4-0-0-0-0-0-0-0-0------------|

 

Cont'd:

e|---------------------------------------------------------------------------|

B|---------------------------------------------------------------------------|

G|4-4-4-4-4-4-4-4-4-4-4-4-9-9-9-9-9-9-9-9-9\6-8\6-6--------------------------|

D|x-x-x-x-x-x-x-x-x-x-x-x-x-x-x-x-x-x-x-x-x-x-x-x-x--------------------------|

A|2-2-2-2-2-2-2-2-2-2-2-2-7-7-7-7-7-7-7-7-7\6-6\4-4--------------------------|

E|---------------------------------------------------------------------------|

 

Cont'd:

e|---------------------------------------------------------------------------|

B|---------------------------------------------------------------------------|

G|4-4-4-4-4-4-4-4-------------------------------------------------4-4-4-4----|

D|4-4-4-4-4-4-4-4-2-2-2-2-2-2-2-2-6-6-6-6-6-6-6-6-4-4-4-4-4-4-4-4-x-x-x-x----|

A|2-2-2-2-2-2-2-2-2-2-2-2-2-2-2-2-6-6-6-6-6-6-6-6-4-4-4-4-4-4-4-4-2-2-2-2----|

E|----------------0-0-0-0-0-0-0-0-4-4-4-4-4-4-4-4-2-2-2-2-2-2-2-2------------|

 

Cont'd:

e|---------------------------------------------------------------------------|

B|---------------------------------------------------------------------------|

G|6-6-6-6-8-8-8-8-11-11-11-11-9-9-9-9-9-9-9-9-9-9-9-9-9-9-9-9----------------|

D|x-x-x-x-x-x-x-x--x--x--x--x-x-x-x-x-x-x-x-x-x-x-x-x-x-x-x-x----------------|

A|4-4-4-4-6-6-6-6--9--9--9--9-7-7-7-7-7-7-7-7-7-7-7-7-7-7-7-7----------------|

E|---------------------------------------------------------------------------|

 

Repeat Solo: (2x)

 

End On:

e|---------|

B|---------|

G|-9vvvv---|

D|---------|

A|---------|

E|---------|

 

That's pretty much it.....might be a little confusing..idk....but it's all in order so it shouldnt be hard to follow. Later!

 

 

 

 

Return to my The Ataris tabs page

The Tablature is Copyright its respective owners.

Sign Up For My Newsletter
Subscribe | Unsubscribe

Site Map | Disclaimer | Privacy Policy | Media Kit | Submissions/Corrections

Website © 2000-2014 mattsmusicpage.com. All rights reserved.

Legal & DMCA: Matt's Music Page has been providing lyrics and tabs in a legal way, paying royalties each year to a few organizations. Then, all lyrics and tabs were removed from the site. Now, there's a new owner to the site, which purchased it August 26, 2014, and he is in negotiation to obtain licensing from BMI at the moment. If you have a specific DMCA request -- please do not hesitate to contact me via the contact button on top. I will do my very best to keep this site fully legal.

Get our toolbar!