Your One-Stop Source For
Music Lyrics
Bass and Guitar Tabs
and More...
>Music Lyrics Bass and Guitar Tabs

 

The Tabs Are Below

Learn To Read Tab
Chords Handbook
Corrections & Additions
Get Official Tab
The Ataris tabs @ 911Tabs

On With the Show - the*Ataris (cover of Motley Crue song)

===============================================================================

By: Josh (synchrony7@hotmail.com)

Solo by Stephon (Stephon@iname.com )

 

 

~ = let ring

pm = palm mute

/ = quick strum, then mute

 

Intro (Guitar 1):

e|-----------------------------------------------------------------------------|

B|-----------------------------------------------------------------------------|

G|-7-7-7-7--7-7-7-7------------------------------------------------------------|

D|-7-7-7-7--7-7-7-7--9-9-9-9--7-7-7-7--5-5-5-5--2-2-2-2--7-7-7-7---------------|

A|-5-5-5-5--4-4-4-4--9-9-9-9--7-7-7-7--5-5-5-5--2-2-2-2--7-7-7-7---------------|

E|-------------------7-7-7-7--5-5-5-5--3-3-3-3--0-0-0-0--5-5-5-5---------------|

 

 

(Guitar 1)

e|-----------------------------------------------------------------------------|

B|-----------------------------------------------------------------------------|

G|-7-7-7-7-7-7-7-7-7-7---7-7-7-7-7---------------------------------------------|

D|-7-7-7-7-7-7-7-7-7-7---7-7-7-7-7----9-9-9-9-9-9-9---7-7-7-7------------------|

A|-5-5-5-5-5-5-5-5-5-5---4-4-4-4-4----9-9-9-9-9-9-9---7-7-7-7------------------|

E|------------------------------------7-7-7-7-7-7-7---5-5-5-5------------------|

 

(Guitar 2)

e|-----------------------------------------------------------------------------|

B|-----------------------------------------------------------------------------|

G|-7~--------------------7~----------------------------------------------------|

D|-7~--------------------7~-----------9~--------------7~-----------------------|

A|-5~--------------------4~-----------9~--------------7~-----------------------|

E|------------------------------------7~--------------5~-----------------------|

Frankie died just the other night. Some say it was suicide,

 

(Both Guitars)

e|-----------------------------------------------------------------------------|

B|-----------------------------------------------------------------------------|

G|-----------------------------------------------------------------------------|

D|----5-5-5-5-2-2-2-2-------7-7-7-7--------------------------------------------|

A|----5-5-5-5-2-2-2-2-------7-7-7-7--------------------------------------------|

E|----3-3-3-3-0-0-0-0-------5-5-5-5--------------------------------------------|

But we know how the story goes.

 

Verse 1:

e|-----------------------------------------------------------------------------|

B|-----------------------------------------------------------------------------|

G|---------7-777777777777777777777--7-77777777777777---------------------------|

D|---------7-777777777777777777777--7-77777777777777------9-99999999999--------|

A|---------5-555555555555555555555--4-44444444444444------9-99999999999--------|

E|--------------------------------------------------------7-77777777777--------|

pm................... pm............ pm.........

With his six string knife And his street wise pride The boy was a man

But ya see Frankie was fast Too fast to know. He wouldn't go slow until

e|-----------------------------------------------------------------------------|

B|-----------------------------------------------------------------------------|

G|-----------------------------------------------------------------------------|

D|---7-77777777777--5-5555555555-2-222222222-----------------7-777777777-------|

A|---7-77777777777--5-5555555555-2-222222222-----------------7-777777777-------|

E|---5-55555555555--3-3333333333-0-000000000-----------------5-555555555-------|

pm......... pm........ pm....... pm.......

before his time, And she knew All their dreams would come true.

his lethal dose. And she knowsHe'll finally come too close.

 

Chorus: (x2)

e|-----------------------------------------------------------------------------|

B|-----------------------------------------------------------------------------|

G|------------------7-7-7-7-7-7-7-7-7-7-7---7-7-7-7-7-7-7----------------------|

D|------------------7-7-7-7-7-7-7-7-7-7-7---7-7-7-7-7-7-7----------------------|

A|------------------5-5-5-5-5-5-5-5-5-5-5---4-4-4-4-4-4-4----------------------|

E|-----------------------------------------------------------------------------|

Well, on with the show. Going on with the show. Come on

 

e|-----------------------------------------------------------------------------|

B|-----------------------------------------------------------------------------|

G|-----------------------------------------------------------------------------|

D|-9-9-9-9-9----7-7-7-7--------------------------------------------------------|

A|-9-9-9-9-9----7-7-7-7--------------------------------------------------------|

E|-7-7-7-7-7----5-5-5-5--3-3-3-3-----------------------------------------------|

baby No, no, no. Oh my, my, my . . .

(repeat)

 

Verse 2:

He was bad.

He was never good.

But one thing that he understood.

And she knew

All those lies would come true.

 

The time has come and

He's paid his dues.

Suzy finally got the news.

She always knew

This day would come soon.

 

Chorus x2

 

Solo (Guitar 1)

e|----------------------------------------------10p9p7-10p9p7------------------|

B|------------------7-----------------------------------------10p9p7-----------|

G|-7~-6h7~---7~-7-9---6~-6-7-9---------------------------------------9p7p6-----|

D|-----------------------------9~-9-9h11p9-7~------------------------------9p7-|

A|-----------------------------------------------------------------------------|

E|----------------------------------------------\way faster than appears here/-|

 

Solo (Guitar 2) tabbed out this way to fit guit1 part, similar to verse though

e|-----------------------------------------------------------------------------|

B|-----------------------------------------------------------------------------|

G|-7~---7~---------------------------------------------------------------------|

D|-x~---x~---------------------------------------------------------------------|

A|-5~---5~---5~-------4~-------------------------5~----------------------------|

E|-----------------------------7~--------5~------------------------------------|

 

 

Solo (Guitar 1) Cont'd

e|-----------------------------------------------------------------------------|

B|-------------------7h10~---------7----------------------------------7--------|

G|-6h7p6h7p6h7p6-9p7--------7~-7-9---6~-6-7-9----------------7~-7-7-9---9-7-9~-|

D|--------------------------------------------9~-9-9h11p9-7~-------------------|

A|-----------------------------------------------------------------------------|

E|-\again,fast as you can/-----------------------------------------------------|

 

Solo (Guitar 2) Cont'd

e|-----------------------------------------------------------------------------|

B|-----------------------------------------------------------------------------|

G|-----------------------------------------------------------------------------|

D|--------5--7--9--------------------------------------------------------------|

A|----------------------7~--5~-------4~-----------------------5~--------7-5-7~-|

E|--------------------------------------------7~----------5~-------------------|

 

 

Mid-Solo (Only Guitar 2) Light

e|-----------------------------------------------------------------------------|

B|------------------------------------------------------------------------5-5~-|

G|----------------------------------4------------------------7-6-7-4~-6-7------|

D|-5-4--------5-4------5-4------5-7------5-4--------5-4------------------------|

A|-----5-7-5~-----7-5~-----7-5~-------7~-----5-7-5~-----7-5~-------------------|

E|-----------------------------------------------------------------------------|

 

 

End Solo (Both Guitars)

e|-----------------------------------------------------------------------------|

B|-----------------------------------------------------------------------------|

G|-7-7-7-7-7-7-7-7-7-7-7-7-7-7-12-11-9-7-7-7-7-7-6-7~-9-9-9-9-12-11-9-7-7-7-7--|

D|-x-x-x-x-x-x-x-x-x-x-x-x-x-x--x--x-x-x-x-x-x-x-x-x~-x-x-x-x--x--x-x-x-x-x-x--|

A|-5-5-5-5-5-5-5-5-4-5-5-5-5-5-10--9-7-5-5-5-5-5-4-5~-7-7-7-7-10--9-7-5-5-5-5--|

E|-----------------------------------------------------------------------------|

 

 

End Solo (Both Guitars) Cont'd

e|------------------------------------------------------/Pick fast, scratch &\-|

B|------------------------------------------------------bend a li'l at the end-|

G|-7-7-7-7-7-7-7-7-7-7-12-11-14-12-12-12-12-12-11-12-16-14141414141414141414xx-|

D|-x-x-x-x-x-x-x-x-x-x--x--x--x--x--x--x--x--x--x--x--x--x-x-x-x-x-x-x-x-x-xxx-|

A|-5-5-5-5-4-5-5-5-5-5-10--9-12-10-10-10-10-10--9-10-14-12121212121212121212xx-|

E|-----------------------------------------------------------------------------|

 

 

Verse 3:

e|-----------------------------------------------------------------------------|

B|-----------------------------------------------------------------------------|

G|-------7/----------------7/-----7/---------------7/--------------------------|

D|-------7/----------------7/-----7/---------------7/9/------------------------|

A|-------5/----------------5/-----4/---------------4/9/------------------------|

E|---------------------------------------------------7/------------------------|

He was stopped on a dime With a switchblade knife. Some *** metaller went and

 

 

e|-----------------------------------------------------------------------------|

B|-----------------------------------------------------------------------------|

G|-----------------------------------------------------------------------------|

D|-7~------------------5~------------2~-------------------7~-------------------|

A|-7~------------------5~------------2~-------------------7~-------------------|

E|-5~------------------3~------------0~-------------------5~-------------------|

Took Frankie's life. And she knew She'd have to pull through.

 

e|-----------------------------------------------------------------------------|

B|-----------------------------------------------------------------------------|

G|-7-7777777777777777777-777777777777777777777---------------------------------|

D|-7-7777777777777777777-777777777777777777777-9999999999999999999--7~---------|

A|-5-5555555555555555555-444444444444444444444-9999999999999999999--7~---------|

E|---------------------------------------------7777777777777777777--5~---------|

pm...........................................................

Broken down, with his broken dreams, With a wink of an eye Said "Suzy, listen

 

e|-xx--------------------------------------------------------------------------|

B|-xx--------------------------------------------------------------------------|

G|-xx--------------------------------------------------------------------------|

D|-xx-5-5-5-5-5--2-2-2-2-2-2-2-2-2-2-2-2--7-7-7-7-7----------------------------|

A|-xx-5-5-5-5-5--2-2-2-2-2-2-2-2-2-2-2-2--7-7-7-7-7----------------------------|

E|-xx-3-3-3-3-3--0-0-0-0-0-0-0-0-0-0-0-0--5-5-5-5-5----------------------------|

to me You must go On with the show."

 

Chorus x2

 

end on D (let ring)

Oh baby!

 

 

 

 

Return to my The Ataris tabs page

The Tablature is Copyright its respective owners.

Sign Up For My Newsletter
Subscribe | Unsubscribe

Site Map | Disclaimer | Privacy Policy | Media Kit | Submissions/Corrections

Website © 2000-2014 mattsmusicpage.com. All rights reserved.

Legal & DMCA: Matt's Music Page has been providing lyrics and tabs in a legal way, paying royalties each year to a few organizations. Then, all lyrics and tabs were removed from the site. Now, there's a new owner to the site, which purchased it August 26, 2014, and he is in negotiation to obtain licensing from BMI at the moment. If you have a specific DMCA request -- please do not hesitate to contact me via the contact button on top. I will do my very best to keep this site fully legal.

Get our toolbar!

 

Lot of 13 Collectible Items (Harmonica, Scouting, Medicine Tin, Ships Pin)
$1.99
Lot of 13 Collectible Items (Harmonica, Scouting, Medicine Tin, Ships Pin) picture


Harmonica Blues Robert Crumb Button R Zap Comic Album 1920's LP CD
$4.0
Harmonica Blues Robert Crumb Button R Zap Comic Album 1920's LP CD picture


NEW IN BOX - Mr. Christmas Animated Dualing Harmonica Bears & Penguin Plug IN
$40.0
NEW IN BOX  -  Mr. Christmas Animated Dualing Harmonica Bears & Penguin Plug IN picture


Grand Ole Opry Souvenir Harmonica
$1.75
Grand Ole Opry Souvenir Harmonica picture


1995 Press Photo Billy Boy Arnold, blues harmonica player, singer and songwriter
$18.88
1995 Press Photo Billy Boy Arnold, blues harmonica player, singer and songwriter picture