Your One-Stop Source For
Music Lyrics
Bass and Guitar Tabs
and More...
Music Lyrics Bass and Guitar Tabs

 

The Tabs Are Below

Learn To Read Tab
Chords Handbook
Corrections & Additions
Get Official Tab
The Ataris tabs @ 911Tabs

Myself - The*Ataris

===============================================================================

by: Josh (synchrony7@hotmail.com)

 

Intro: x2

e|-----------------------------------------------------------------------------|

B|-----------------------------------------------------------------------------|

G|--------------3-3-3--5-5-5---------------------------------------------------|

D|-3-3-3-3-3-3--3-3-3--5-5-5---------------------------------------------------|

A|-3-3-3-3-3-3--1-1-1--3-3-3---------------------------------------------------|

E|-1-1-1-1-1-1-----------------------------------------------------------------|

 

Verse 1:

e|-----------------------------------------------------------------------------|

B|-----------------------------------------------------------------------------|

G|------------------------------3-3-3-3-3-3-3-3-------5-5-5-5-5----------------|

D|-3-3-3-3-3-3-3-3-3-3----------3-3-3-3-3-3-3-3-------5-5-5-5-5----------------|

A|-3-3-3-3-3-3-3-3-3-3----------1-1-1-1-1-1-1-1-------3-3-3-3-3----------------|

E|-1-1-1-1-1-1-1-1-1-1---------------------------------------------------------|

I live my life day by day hating it in every way.

Sitting all alone keeping to myself, far away from everyone else.

 

e|-----------------------------------------------------------------------------|

B|-----------------------------------------------------------------------------|

G|-7-7-7-7-7----3-3-3-3-3---------5-5-5-5-5------------------------------------|

D|-7-7-7-7-7----3-3-3-3-3---------5-5-5-5-5------------------------------------|

A|-5-5-5-5-5----1-1-1-1-1---------3-3-3-3-3------------------------------------|

E|-----------------------------------------------------------------------------|

Even though I feel alone inside,

sometimes I find it hard to hide.

It’s hard to keep my feelings in,

I just wanna express myself again.

 

Chorus x2

e|-----------------------------------------------------------------------------|

B|-----------------------------------------------------------------------------|

G|------------------------------------------------3-3-3--5-5-5-----------------|

D|--------------------3-3-3-3-3-3-3-3-3-----------3-3-3--5-5-5-----------------|

A|--------------------3-3-3-3-3-3-3-3-3-----------1-1-1--3-3-3-----------------|

E|--------------------1-1-1-1-1-1-1-1-1----------------------------------------|

I’m gonna speak my mind. You should speak your mind!

 

Intro x2

 

Verse 2:

e|-----------------------------------------------------------------------------|

B|-----------------------------------------------------------------------------|

G|-7-7-7-7-7----3-3-3-3-3--------------5-5-5-5-5-------------------------------|

D|-7-7-7-7-7----3-3-3-3-3--------------5-5-5-5-5-------------------------------|

A|-5-5-5-5-5----1-1-1-1-1--------------3-3-3-3-3-------------------------------|

E|-----------------------------------------------------------------------------|

I wonder how I’ll tell you how I feel,

and how do I know if this feeling’s really real?

I don’t understand the reasons why

instead of speaking your mind you don’t even try...

 

2nd Chorus x3

e|-----------------------------------------------------------------------------|

B|-----------------------------------------------------------------------------|

G|------------------------------------------------3-3-3-----5-5-5--------------|

D|--------------------3-3-3-3-3-3-3-3-3-----------3-3-3-----5-5-5--------------|

A|--------------------3-3-3-3-3-3-3-3-3-----------1-1-1-----3-3-3--------------|

E|--------------------1-1-1-1-1-1-1-1-1----------------------------------------|

...or even care. You don’t even care. (x3)

 

Bridge:

e|-----------------------------------------------------------------------------|

B|-----------------------------------------------------------------------------|

G|-10~---10~--10-10-10/12--10-10-10/12--10-10-10--15-15-15---15--14--12--------|

D|-x-----x----x--x--x--x---x--x--x--x---x--x--x---x--x--x----x---x---x---------|

A|-8~----8~---8--8--8-/10--8--8--8-/10--8--8--8---13-13-13---13--12--10--------|

E|-----------------------------------------------------------------------------|

 

e|-----------------------------------------------------------------------------|

B|-----------------------------------------------------------------------------|

G|------------10-10-10/12--10-10-10/12--10-10-10--15-15-15---15--14--12--------|

D|------------x--x--x--x---x--x--x--x---x--x--x---x--x--x----x---x---x---------|

A|------------8--8--8-/10--8--8--8-/10--8--8--8---13-13-13---13--12--10--------|

E|-----------------------------------------------------------------------------|

 

Repeat Verse 2

Repeat 2nd Chorus x2

 

then:

e|-----------------------------------------------------------------------------|

B|-----------------------------------------------------------------------------|

G|--------------3-3-3--5-5-5--------3-3-3--5-5-5-------------------------------|

D|-3x-----------3-3-3--5-5-5----3x--3-3-3--5-5-5-----3-------------------------|

A|-3x-----------1-1-1--3-3-3----3x--1-1-1--3-3-3-----3-------------------------|

E|-1x---------------------------1x-------------------1-------------------------|

Let's go! Ohhh ***!

 

 

Return to my The Ataris tabs page

The Tablature is Copyright its respective owners.

Sign Up For My Newsletter
Subscribe | Unsubscribe

Site Map | Disclaimer | Privacy Policy | Media Kit | Submissions/Corrections

Website © 2000-2014 mattsmusicpage.com. All rights reserved.

Get our toolbar!