Your One-Stop Source For
Music Lyrics
Bass and Guitar Tabs
and More...
Music Lyrics Bass and Guitar Tabs

 

The Tabs Are Below

Learn To Read Tab
Chords Handbook
Corrections & Additions
Get Official Tab
The Ataris tabs @ 911Tabs

Let It Go - The*Ataris

-------------------------------------------------------------------------------

By: Josh (synchrony7@hotmail.com)

 

Verse 1:

e|-----------------------------------------------------------------------------|

B|-----------------------------------------------------------------------------|

G|-----------------------------------------------------------------------------|

D|-9-9-9-9-9-9-9-9-9-9-9-9-9-9-9-9-9-9-9--6-6-6-6-6-6-6-6-6-6-6-6-6-6-6-6------|

A|-9-9-9-9-9-9-9-9-9-9-9-9-9-9-9-9-9-9-9--6-6-6-6-6-6-6-6-6-6-6-6-6-6-6-6------|

E|-7-7-7-7-7-7-7-7-7-7-7-7-7-7-7-7-7-7-7--4-4-4-4-4-4-4-4-4-4-4-4-4-4-4-4------|

Forgot about that girl I didn't kiss, about the one show that I missed...

There's no use holding onto the past Live it up man, have a blast!

e|-----------------------------------------------------------------------------|

B|-----------------------------------------------------------------------------|

G|--------9-9-9-9-9-9-9-9-9-9-9-9-9-9-9-9-9-9-----11-11-11-11------------------|

D|--------9-9-9-9-9-9-9-9-9-9-9-9-9-9-9-9-9-9-----11-11-11-11------------------|

A|--------7-7-7-7-7-7-7-7-7-7-7-7-7-7-7-7-7-7-----9--9--9--9-------------------|

E|-----------------------------------------------------------------------------|

I sorta figured out that things will turn out alright.

Stop your whining pal and go have some fun tonight!

 

Chorus:

e|-----------------------------------------------------------------------------|

B|-----------------------------------------------------------------------------|

G|----------------------9--11--------------------------------------------------|

D|-----------9-9-9-9-9--9--11--------------------------------------------------|

A|-----------9-9-9-9-9--7--9---------------------------------------------------|

E|-----------7-7-7-7-7---------------------------------------------------------|

You gotta let it go (x2)

e|-----------------------------------------------------------------------------|

B|-----------------------------------------------------------------------------|

G|------------------------------------------------9-9-9-9-9--------------------|

D|-----------6-6-6-6-6-6---4-4-4-4-4-4------------9-9-9-9-9--------------------|

A|-----------6-6-6-6-6-6---4-4-4-4-4-4------------7-7-7-7-7--------------------|

E|-----------4-4-4-4-4-4---2-2-2-2-2-2-----------------------------------------|

You gotta let it go and things will turn out alright!

You gotta let it go and have some fun tonight!

 

(Verse 2)

 

Bridge:

e|-----------------------------------------------------------------------------|

B|-----------------------------------------------------------------------------|

G|-9------------------11-------------------------------------------------------|

D|-9------------------11-----9------------6------------------------------------|

A|-7------------------9------9------------6------------------------------------|

E|---------------------------7------------4------------------------------------|

I'm gonna tell the world about my baby girl.

e|-----------------------------------------------------------------------------|

B|-----------------------------------------------------------------------------|

G|-9-------------11------------------------------------------------------------|

D|-9-------------11-------------9----------------------------------------------|

A|-7-------------9--------------9----------------------------------------------|

E|------------------------------7----------------------------------------------|

Starla is her name, oh yes indeed!

 

(This part x2)

e|-----------------------------------------------------------------------------|

B|-----------------------------------------------------------------------------|

G|--------11-9---------11-9---------11-9--6-6-6-6-6--9-11----------------------|

D|-9-9-9--11-9--9-9-9--11-9--9-9-9--11-9--6-6-6-6-6--9-11----------------------|

A|-9-9-9--9--7--9-9-9--9--7--9-9-9--9--7--4-4-4-4-4--7-9-----------------------|

E|-7-7-7--------7-7-7--------7-7-7---------------------------------------------|

 

Repeat Chorus and end on B

 

 

Return to my The Ataris tabs page

The Tablature is Copyright its respective owners.

Sign Up For My Newsletter
Subscribe | Unsubscribe

Site Map | Disclaimer | Privacy Policy | Media Kit | Submissions/Corrections

Website © 2000-2014 mattsmusicpage.com. All rights reserved.

Legal & DMCA: Matt's Music Page has been providing lyrics and tabs in a legal way, paying royalties each year to a few organizations. Then, all lyrics and tabs were removed from the site. Now, there's a new owner to the site, which purchased it August 26, 2014, and he is in negotiation to obtain licensing from BMI at the moment. If you have a specific DMCA request -- please do not hesitate to contact me via the contact button on top. I will do my very best to keep this site fully legal.

Get our toolbar!