Your One-Stop Source For
Music Lyrics
Bass and Guitar Tabs
and More...
Music Lyrics Bass and Guitar Tabs

 

The Tabs Are Below

Learn To Read Tab
Chords Handbook
Corrections & Additions
Get Official Tab
The Ataris tabs @ 911Tabs

IF YOU REALLY WANNA HEAR ABOUT IT - The Ataris

------------------------------------------------------------------------

 

Intro

e|----------------------------------|----------------------------------------|

b|--5-----5---5----/6-5-----------5-|-5-----5---5----/6-5-8------------------|

g|----5-----7---7-5-----7-5-4-5-7---|---5-----7---7-5-------5-7--------------|

D|------5---------------------------|-----5----------------------------------|

A|----------------------------------|----------------------------------------|

E|----------------------------------|----------------------------------------|

 

Pre Verse Verse

e|---------------------|-----------------------------------------------------|

b|---------------------|-----------------------------------------------------|

g|---5-5-5-5-55-5-5-5-5|5-5-5-5-5--------------------------------------------|

D|---5-5-5-5-55-5-5-5-5|5-5-5-5-57-7-7-7-73-3-3-3-35-5-5-5-5-----------------|

A|---3-3-3-3-33-3-3-3-3|3-3-3-3-37-7-7-7-73-3-3-3-35-5-5-5-5-----------------|

E|---------------------|---------5-5-5-5-51-1-1-1-13-3-3-3-3-----------------|

 

e|---------------------------------------------------------------------------|

b|---------------------------------------------------------------------------|

g|5-5-5-5-5------------------------------------------------------------------|

D|5-5-5-5-57-7-7-7-33-3-3-3-3555555555---------------------------------------|

A|3-3-3-3-37-7-7-7-33-3-3-3-3555555555---------------------------------------|

E|---------5-5-5-5-51-1-1-1-1333333333---------------------------------------|

 

e|---------------------------------------------------------------------------|

b|---------------------------------------------------------------------------|

g|------------------------55555555-------------------------------------------|

D|33333333555555557777777755555555----x3-------------------------------------|

A|33333333555555557777777733333333-------------------------------------------|

E|111111113333333355555555---------------------------------------------------|

 

 

e|---------------------------------------------------------------------------|

b|---------------------------------------------------------------------------|

g|---------------------------------------------------------------------------|

D|--3------------5-----------------------------------------------------------|

A|--3------------5-----------------------------------------------------------|

E|--1------------3-----------------------------------------------------------|

 

Intro

 

Verse

 

Bridgex 2

e|-----------------------------------xxxxxxx--------------------------------|

b|-----------------------------------xxxxxxx--------------------------------|

g|5~----------------7~---------------xxxxxxx--------------------------------|

D|5~-------7~-------7~-------3~---5~-xxxxxxx--------------------------------|

A|3~-------7~-------5~-------3~---5~-xxxxxxx--------------------------------|

E|---------5~----------------1~---3~-xxxxxxx--------------------------------|

 

Finish x 4

e|----------------------------------|

b|----------------------------------|

g|-55555555-------------------------|

D|-55555555777777773333333355555555-|

A|-33333333777777773333333355555555-|

E|---------555555551111111133333333-|

X 1

e|----------------------------------|----------------------------------------|

b|--5-----5---5----/6-5-----------5-|-5-----5---5----/6-5-8--------5---------|

g|----5-----7---7-5-----7-5-4-5-7---|---5-----7---7-5-------5-7-----75-------|

D|------5---------------------------|-----5----------------------------------|

A|----------------------------------|----------------------------------------|

E|----------------------------------|----------------------------------------|

 

 

Return to my The Ataris tabs page

The Tablature is Copyright its respective owners.

Sign Up For My Newsletter
Subscribe | Unsubscribe

Site Map | Disclaimer | Privacy Policy | Media Kit | Submissions/Corrections

Website © 2000-2014 mattsmusicpage.com. All rights reserved.

Legal & DMCA: Matt's Music Page has been providing lyrics and tabs in a legal way, paying royalties each year to a few organizations. Then, all lyrics and tabs were removed from the site. Now, there's a new owner to the site, which purchased it August 26, 2014, and he is in negotiation to obtain licensing from BMI at the moment. If you have a specific DMCA request -- please do not hesitate to contact me via the contact button on top. I will do my very best to keep this site fully legal.

Get our toolbar!