Your One-Stop Source For
Music Lyrics
Bass and Guitar Tabs
and More...
Music Lyrics Bass and Guitar Tabs

 

The Tabs Are Below

Learn To Read Tab
Chords Handbook
Corrections & Additions
Get Official Tab
The Ataris tabs @ 911Tabs

How I Spent My Summer Vacation - The Ataris

=========================================================================

 

By: Gary(TheAtaris07@aol.com)

Josh(synchrony7@hotmail.com)

Special thanks to atariboy115 for providing the basic chords

 

PM- Palm Mute

 

Verse: (Guitar 1)

e|----------------------------------------------------------------------|

b|----------------------------------------------------------------------|

g|7-7--7----7-7-7-7-7-7-7-7---------------------------------------------|

d|7-7--7----7-7-7-7-7-7-7-7--4--4--4-4-4-4-4-4-4-4-4-4------------------|

a|5-5--5----5-5-5-5-5-5-5-5--4--4--4-4-4-4-4-4-4-4-4-4------------------|

E|---------------------------2--2--2-2-2-2-2-2-2-2-2-2------------------|

Got out of bed today I'm in love, what can I

....town. All day long I walked

(Guitar 2)

e|----------------------------------------------------------------------|

B|----------------------------------------------------------------------|

G|----------9-----7-6---------------9-----7-6---------------------------|

D|----------x-----x-x---------------x-----x-x---------------------------|

A|----------7-----5-4---------------7-----5-4---------------------------|

E|----------------------------------------------------------------------|

 

e|----------------------------------------------------------------------|

B|----------------------------------------------------------------------|

G|----------------------------------------------------------------------|

D|-5--5--5-5-5-5-5-5-5-5-5-5---7-7-7-7-7-7-7-7-7-7-7-7-7-7-7-7-7-7-7----|

A|-5--5--5-5-5-5-5-5-5-5-5-5---7-7-7-7-7-7-7-7-7-7-7-7-7-7-7-7-7-7-7----|

E|-3--3--3-3-3-3-3-3-3-3-3-3---5-5-5-5-5-5-5-5-5-5-5-5-5-5-5-5-5-5-5----|

say? I'm really happy to be somewhere with someone who makes me happy

around. ....thought about how lucky I am now.

 

(Guitar 2)

e|----------------------------------------------------------------------|

B|----------------------------------------------------------------------|

G|--------9-----7-6---------------9-----7-6-----------------------------|

D|--------x-----x-x---------------x-----x-x-----------------------------|

A|--------7-----5-4---------------7-----5-4-----------------------------|

E|----------------------------------------------------------------------|

 

 

Pre Chorus:

e|----------------------------------------------------------------------|

b|----------------------------------------------------------------------|

g|4-4-4--4--------------------------------------------------------------|

d|4-4-4--4-----4-4-4--4-----5-5-5--5--7-7-7-7-7-------------------------|

a|2-2-2--2-----4-4-4--4-----5-5-5--5--7-7-7-7-7-------------------------|

E|-------------2-2-2--2-----3-3-3--3--5-5-5-5-5-------------------------|

PM~ PM

I was sick of being down so I gave it all away

2000 miles.........know......better off today.

 

Chorus:

e|----------------------------------------------------------------------|

b|----------------------------------------------------------------------|

g|------------------------------4-4-4-4-4-4-4--4-4-4-----------------------|

d|5-5-5-5-5-5-5--7-7-7-7-7-7-7--4-4-4-4-4-4-4--4-4-4-7-7-7--------------|

a|5-5-5-5-5-5-5--7-7-7-7-7-7-7--2-2-2-2-2-2-2--2-2-2-7-7-7--------------|

E|3-3-3-3-3-3-3--5-5-5-5-5-5-5-----------------------5-5-5--------------|

PM~~~~~~~~~ PM~~~~~~~~~ PM~~~~~~~~~ PM~ PM~

I'm still waiting for the world To come crashing down a-

head. ...waiting for someone to call meup and tell me "You're dead."

 

e|----------------------------------------------------------------------|

b|----------------------------------------------------------------------|

g|----------------------------------7-7-7-------------------------------|

d|5-5-5-5-5-5-5-5--7-7-7-7-7-7-7-7--7-7-7-7-7-7--------5-5-5------------|

a|5-5-5-5-5-5-5-5--7-7-7-7-7-7-7-7--5-5-5-7-7-7--------5-5-5------------|

E|3-3-3-3-3-3-3-3--5-5-5-5-5-5-5-5--------5-5-5--------3-3-3------------|

Sometimes I wonder what was going through your head.

 

e|----------------------------------------------------------------------|

b|----------------------------------------------------------------------|

g|----------------------------------------------------------------------|

d|7-7-7--------4-4-4-4-4-4-4-----5-5-5-----7-7-7------------------------|

a|7-7-7--------4-4-4-4-4-4-4-----5-5-5-----7-7-7------------------------|

E|5-5-5--------2-2-2-2-2-2-2-----3-3-3-----5-5-5------------------------|

Hey, I don't know, But I won't go there again.

 

(Repeat Verse once without words)

(Repeat Verse):

You make me smile so wide

When I look into your eyes

And when you're not around

You know you're somewhere stuck inside my mind.

 

(Repeat Pre Chorus)

 

Repeat Chorus and after

"Hey I don't know, But, I won't go there again"

 

Outro:

e|----------------------------------------------------------------------|

b|----------------------------------------------------------------------|

g|7-7--7----7-7-7-7-7-7-7-7---------------------------------------------|

d|7-7--7----7-7-7-7-7-7-7-7--4--4--4-4-4-4-4-4-4-4-4-4------------------|

a|5-5--5----5-5-5-5-5-5-5-5--4--4--4-4-4-4-4-4-4-4-4-4------------------|

E|---------------------------2--2--2-2-2-2-2-2-2-2-2-2------------------|

 

(Guitar 2)

e|----------------------------------------------------------------------|

B|----------------------------------------------------------------------|

G|----------9-----7-6---------------9-----7-6---------------------------|

D|----------x-----x-x---------------x-----x-x---------------------------|

A|----------7-----5-4---------------7-----5-4---------------------------|

E|----------------------------------------------------------------------|

 

e|----------------------------------------------------------------------|

B|----------------------------------------------------------------------|

G|----------------------------------------------------------------------|

D|-5--5--5-5-5-5-5-5-5-5-5-5---7-7-7-7-7-7-7-7-7-7-7-7-7-7-7-7-7-7-7----|

A|-5--5--5-5-5-5-5-5-5-5-5-5---7-7-7-7-7-7-7-7-7-7-7-7-7-7-7-7-7-7-7----|

E|-3--3--3-3-3-3-3-3-3-3-3-3---5-5-5-5-5-5-5-5-5-5-5-5-5-5-5-5-5-5-5----|

 

(Guitar 2)

e|----------------------------------------------------------------------|

B|----------------------------------------------------------------------|

G|--------9-----7-6---------------9-----7-6-----------------------------|

D|--------x-----x-x---------------x-----x-x-----------------------------|

A|--------7-----5-4---------------7-----5-4-----------------------------|

E|----------------------------------------------------------------------|

No I won't go there again.

 

Repeat Outro slowing down as you play and end on D

 

 

Return to my The Ataris tabs page

The Tablature is Copyright its respective owners.

Sign Up For My Newsletter
Subscribe | Unsubscribe

Site Map | Disclaimer | Privacy Policy | Media Kit | Submissions/Corrections

Website © 2000-2014 mattsmusicpage.com. All rights reserved.

Legal & DMCA: Matt's Music Page has been providing lyrics and tabs in a legal way, paying royalties each year to a few organizations. Then, all lyrics and tabs were removed from the site. Now, there's a new owner to the site, which purchased it August 26, 2014, and he is in negotiation to obtain licensing from BMI at the moment. If you have a specific DMCA request -- please do not hesitate to contact me via the contact button on top. I will do my very best to keep this site fully legal.

Get our toolbar!