Your One-Stop Source For
Music Lyrics
Bass and Guitar Tabs
and More...
Music Lyrics Bass and Guitar Tabs

 

The Tabs Are Below

Learn To Read Tab
Chords Handbook
Corrections & Additions
Get Official Tab
The Ataris tabs @ 911Tabs

FAST TIMES AT DROPOUT HIGH - The Ataris

-------------------------------------------------------------------------------

 

By: Josh(synchrony7@hotmail.com)

Gary(TheAtaris07@aol.com)

 

3x

3x - mute after strumming

1x

~ - let ring out

h - hammer on

/ - slide

x

x

x - scratching

x

x

x

 

Intro: Guitar 1

e|---------------------------------------------------------------------------|

B|---------------------------------------------------------------------------|

G|------------7-7-7-7-7--3-3-3-3-3--5-5-5-5-5--------------------------------|

D|-3-3-3-3-3--7-7-7-7-7--3-3-3-3-3--5-5-5-5-5--3x----------------------------|

A|-3-3-3-3-3--5-5-5-5-5--1-1-1-1-1--3-3-3-3-3--3x----------------------------|

E|-1-1-1-1-1-----------------------------------1x----------------------------|

 

Intro: Guitar 2

e|---------------------------------------------------------------------------|

B|---------------------------------------------------------------------------|

G|---------------------------------------------------------------------------|

D|---------------------------------------------3x----------------------------|

A|---------------------------------------------3x----------------------------|

E|---------------------------------------------1x----------------------------|

 

Verse: Guitar 1

e|---------------------------------------------------------------------------|

B|---------------------------------------------------------------------------|

G|---------------7-7-7-7-7-----------3-3-3-3-3--5-5-5-5-5--------------------|

D|-3-3-3-3-3-----7-7-7-7-7-----------3-3-3-3-3--5-5-5-5-5----3-3-3-3-3-------|

A|-3-3-3-3-3-----5-5-5-5-5-----------1-1-1-1-1--3-3-3-3-3----3-3-3-3-3-------|

E|-1-1-1-1-1-------------------------------------------------1-1-1-1-1-------|

Alone at last Just nastalgia and I we were sure to have a blast

For you......Just another Sunday...in a......small........town

 

Verse: Guitar 2 Play when Kris sings "Just another Sunday..."

e|---------------------------------------------------------------------------|

B|---------------------------------------------------------------------------|

G|7-7-7-7-7-7/10-9-9-9-9-9-9-9-9-3-3-3-3-3-3-3/7-5-5-5-5-5-5-5-5-5-5-5-5-----|

D|x-x-x-x-x-x--x-x-x-x-x-x-x-x-x-x-x-x-x-x-x-x-x-x-x-x-x-x-x-x-x-x-x-x-x-----|

A|5-5-5-5-5-5/-8-7-7-7-7-7-7-7-7-1-1-1-1-1-1-1/5-3-3-3-3-3-3-3-3-3-3-3-3-----|

E|---------------------------------------------------------------------------|

 

Verse Cont'd: Guitar 2

e|---------------------------------------------------------------------------|

B|---------------------------------------------------------------------------|

G|---------------------------------------------------------------------------|

D|3-3-3-3-3-3-3-3-3-3-3-3----------------------------------------------------|

A|3-3-3-3-3-3-3-3-3-3-3-3----------------------------------------------------|

E|1-1-1-1-1-1-1-1-1-1-1-1----------------------------------------------------|

 

Chorus: Guitar 1

e|---------------------------------------------------------------------------|

B|---------------------------------------------------------------------------|

G|2--------3---------------------------------------5-----------------7-------|

D|2--------3------------------3--------------------5-----------------7-------|

A|0--------1------------------3--------------------3-----------------5-------|

E|----------------------------1----------------------------------------------|

I went by the place where you and I wrote our names in wet cement, and

 

Chorus Cont'd: Guitar 1

e|---------------------------------------------------------------------------|

B|---------------------------------------------------------------------------|

G|-------3------------------------------------5----------------3-------------|

D|-------3-----------------3------------------5----------------3-------------|

A|-------1-----------------3------------------3----------------1-------------|

E|-------------------------1-------------------------------------------------|

for a moment remembered how it felt to have no one understand that there's

 

Chorus Cont'd: Guitar 1

e|---------------------------------------------------------------------------|

B|---------------------------------------------------------------------------|

G|---------5---7-----------------5----------3-------5~-----------------------|

D|---------5---7-----------------5----------3-------5~--------3--------------|

A|---------3---5-----------------3----------1-------3~--------3--------------|

E|------------------------------------------------------------1--------------|

this dream and they're not part of it, how soon we do forget.

 

Chorus: Guitar 2

e|---------------------------------------------------------------------------|

B|----------------------------------------------------6-----6----------------|

G|10-10--9--9-10-10--9--9-10-10--9--9-10-10--9--9----------------------------|

D|10-10-10-10-10-10-10-10-10-10-10-10-10-10-10-10-6h7---6h7---6h7------------|

A|---------------------------------------------------------------------------|

E|---------------------------------------------------------------------------|

 

Chorus Cont'd: Guitar 2

e|---------------------------------------------------------------------------|

B|---------------------------------------------------------------------------|

G|9-9-9-9-10-10-12-12-10-10--9--9-10-10--9--9-10-10--9--9-10-10--9--9--------|

D|7-7-7-7--7--7--9--9-10-10-10-10-10-10-10-10-10-10-10-10-10-10-10-10--------|

A|---------------------------------------------------------------------------|

E|---------------------------------------------------------------------------|

 

Chorus Cont'd: Guitar 2

e|---------------------------------------------------------------------------|

B|----6-----6-----6~---------------------------------------------------------|

G|--------------------10-10--9--9-10-10--9--9-10-10--9--9-10-10--9--9--------|

D|6h7---6h7---6h7-----10-10-10-10-10-10-10-10-10-10-10-10-10-10-10-10--------|

A|---------------------------------------------------------------------------|

E|---------------------------------------------------------------------------|

 

Chorus Cont'd: Guitar 2

e|---------------------------------------------------------------------------|

B|---------------------------------------------------------------------------|

G|9-9-9-9-9-9-9-9-10-10-10-10-10/12-12-12-----------------5~-----------------|

D|7-7-7-7-7-7-7-7--7--7--7--7--7/-9--9--9-3-3-3-3-3-3-3-3-5~-----------------|

A|----------------------------------------3-3-3-3-3-3-3-3-3~-----------------|

E|----------------------------------------1-1-1-1-1-1-1-1--------------------|

 

 

Bridge: Guitar 1

e|---------------------------------------------------------------------------|

B|---------------------------------------------------------------------------|

G|---------------------------------------------------------------------------|

D|3-3-3-3-3-3-3-3-3-3-3-3-3-3-3-3--------------------------------------------|

A|3-3-3-3-3-3-3-3-3-3-3-3-3-3-3-3--------------------------------------------|

E|1-1-1-1-1-1-1-1-1-1-1-1-1-1-1-1--------------------------------------------|

 

Bridge: Guitar 2

e|---------------------------------------------------------------------------|

B|---------------------------------------------------------------------------|

G|---------------------------------------------------------------------------|

D|---------------------------------------------------------------------------|

A|---------------------------------------------------------------------------|

E|-------------Long-Pickslide------------------------------------------------|

 

Repeat Verse: The house was gone

but the piano lingers on

and so does the fire

that burned it to the ground

you can take away

all of my rights to see the day

but you can't take away

my love for the day

 

2nd Verse: Guitar 2 Played when Kris sings "But the piano lingers on..."

e|---------------------------------------------------------------------------|

B|---------------------------------------------------------------------------|

G|9/10-9-9-9-9-9-9-9-9-3-3-3-3-3-3-3-3-5-5-5-5-5-5-5-5-----------------------|

D|x--x-x-x-x-x-x-x-x-x-x-x-x-x-x-x-x-x-x-x-x-x-x-x-x-x-3-3-3-3-3-3-3-3-3-3-3-|

A|7/-8-7-7-7-7-7-7-7-7-1-1-1-1-1-1-1-1-3-3-3-3-3-3-3-3-3-3-3-3-3-3-3-3-3-3-3-|

E|-----------------------------------------------------1-1-1-1-1-1-1-1-1-1-1-|

 

2nd Verse Cont'd: Guitar 2 Played after Kris sings "You can take away..."

e|----------|

B|----------|

G|10/9~-----|

D|-x-x------|

A|-8/7~-----|

E|----------|

 

End of Verse: Both Guitars

e|------------|

B|------------|

G|------------|

D|---3-2------|

A|---3-2------|

E|---1-0------|

 

Chorus: Guitar 1

e|---------------------------------------------------------------------------|

B|---------------------------------------------------------------------------|

G|7--------------------------------------------------3-----------------------|

D|7------------------------3-------------------------3-----------------------|

A|5------------------------3-------------------------1-----------------------|

E|-------------------------1-------------------------------------------------|

Then there's that time that you took me aside, and said I was not your

 

Chorus Cont'd: Guitar 1

e|---------------------------------------------------------------------------|

B|---------------------------------------------------------------------------|

G|-------------------------------------7--------------------------------3----|

D|--------3---------------2------------7------------3-------------------3----|

A|--------3---------------2------------5------------3-------------------1----|

E|--------1---------------0-------------------------1------------------------|

only son, childhood is so ***ed up, I never had any closer friends than

 

Chorus Cont'd: Guitar 1

e|---------------------------------------------------------------------------|

B|---------------------------------------------------------------------------|

G|--------------------------------------------3-------------5--7-----------5-|

D|--------------------3-------------2---------3-------------5--7-----------5-|

A|--------------------3-------------2---------1-------------3--5-----------3-|

E|--------------------1-------------0----------------------------------------|

the ones I had when I was young alone again, just you and I, Nostalgia wave

 

Chorus Cont'd: Guitar 1

e|---------------------------------------------------------------------------|

B|---------------------------------------------------------------------------|

G|---------3--------------5~-------------------------------------------------|

D|---------3--------------5~------------3------------------------------------|

A|---------1--------------3~------------3------------------------------------|

E|--------------------------------------1------------------------------------|

goodbye, I think it's time for me to go.

 

Chorus: Guitar 2

e|---------------------------------------------------------------------------|

B|---------------------------------------------------------------------------|

G|10-10--9--9-10-10--9--9-10-10--9--9--9h10-12-12-10--9-10--9-10-10-10-------|

D|10-10-10-10-10-10-10-10-10-10-10-10-------------10-10-10-10-10-10-10-------|

A|---------------------------------------------------------------------------|

E|---------------------------------------------------------------------------|

 

Chorus Cont'd: Guitar 2

e|---------------------------------------------------------------------------|

B|---------------------------------------------------------------------------|

G|10--9-10--9-10-10-10---10--9-10--9-10-10-10---10--9-10--9-10-10-10---------|

D|10-10-10-10-10-10-10---10-10-10-10-10-10-10---10-10-10-10-10-10-10---------|

A|---------------------------------------------------------------------------|

E|---------------------------------------------------------------------------|

 

Chorus Cont'd: Guitar 2

e|---------------------------------------------------------------------------|

B|----6-----6----------------------------------------------------------------|

G|------------9-9-9-9-9-9-9-9-10-10--9--9-10-10--9--9-10-10--9--9--9h10-12-12|

D|6h7---6h7---6-6-6-7-7-7-9-9-10-10-10-10-10-10-10-10-10-10-10-10------------|

A|---------------------------------------------------------------------------|

E|---------------------------------------------------------------------------|

 

Chorus Cont'd: Guitar 2

e|---------------------------------------------------------------------------|

B|---------------------------------------------------------------------------|

G|10--9-10--9-10-10-10--10--9-10--9-10-10-10--10-10-10-10-12-12-12-14-14-14--|

D|10-10-10-10-10-10-10--10-10-10-10-10-10-10---------------------------------|

A|---------------------------------------------------------------------------|

E|---------------------------------------------------------------------------|

 

Chorus Cont'd: Guitar 2

e|---------------------------------------------------------------------------|

B|---------------------------------------------------------------------------|

G|14-14-14-15-15-15-15-15-15-14-14-14-14-14-14-14-14-12-12-12-12-12-12-12-12-|

D|---------------------------------------------------------------------------|

A|---------------------------------------------------------------------------|

E|---------------------------------------------------------------------------|

 

Chorus Cont'd: Guitar 2

e|---------------------------------------------------------------------------|

B|---------------------------------------------------------------------------|

G|15-15-15-15-15-15-15-15-12-12-12-12-12-12-12-12-9-9-9-9-9-9-9-9-10-10-10-10|

D|---------------------------------------------------------------------------|

A|---------------------------------------------------------------------------|

E|---------------------------------------------------------------------------|

 

Chorus Cont'd: Guitar 2

e|---------------------------------------------------------------------------|

B|---------------------------------------------------------------------------|

G|12-12-12-12-10-10-10-10-10-10-10-10-9~-------------------------------------|

D|---------------------------------------------------------------------------|

A|---------------------------------------------------------------------------|

E|---------------------------------------------------------------------------|

 

Bridge: Both Guitars

e|------------------------------------------------x-x-x-x--------------------|

B|------------------------------------------------x-x-x-x--------------------|

G|------------------------3-3-3-3-3-3-3-3-3-3-3-3-x-x-x-x--------------------|

D|3-3-3-3-3-3-3-3-3-3-3-3-3-3-3-3-3-3-3-3-3-3-3-3-x-x-x-x--------------------|

A|3-3-3-3-3-3-3-3-3-3-3-3-1-1-1-1-1-1-1-1-1-1-1-1-x-x-x-x--------------------|

E|1-1-1-1-1-1-1-1-1-1-1-1-------------------------x-x-x-x--------------------|

 

Bridge Cont'd: Both Guitars

e|---------------------------------------------------------------------------|

B|---------------------------------------------------------------------------|

G|------------------------3-3-3-3-3-3-3-3-3-3-3-3x---------------------------|

D|3-3-3-3-3-3-3-3-3-3-3-3-3-3-3-3-3-3-3-3-3-3-3-3x---------------------------|

A|3-3-3-3-3-3-3-3-3-3-3-3-1-1-1-1-1-1-1-1-1-1-1-1x---------------------------|

E|1-1-1-1-1-1-1-1-1-1-1-1----------------------------------------------------|

 

Outro: Guitar 1 (4x)

e|---------------------------------------------------------------------------|

B|---------------------------------------------------------------------------|

G|7-7-7-7-7-7-7-7-7-7-5-5-5-5-5-5-5-5-5-5-3-3-3-3-3-3-3-3-3-3----------------|

D|7-7-7-7-7-7-7-7-7-7-5-5-5-5-5-5-5-5-5-5-3-3-3-3-3-3-3-3-3-3-3-3-3-3-3-3-3-3|

A|5-5-5-5-5-5-5-5-5-5-3-3-3-3-3-3-3-3-3-3-1-1-1-1-1-1-1-1-1-1-3-3-3-3-3-3-3-3|

E|------------------------------------------------------------1-1-1-1-1-1-1-1|

 

Outro: Guitar 2 (4x)

e|---------------------------------------------------------------------------|

B|---------------------------------------------------------------------------|

G|10-9-10--10/12-10-9--10-9-10--10-------------------------------------------|

D|---------------------------------10-9-7------------------------------------|

A|---------------------------------------------------------------------------|

E|---------------------------------------------------------------------------|

 

End on: Both Guitars

e|----------|

B|----------|

G|----------|

D|---3x-----|

A|---3x-----|

E|---1x-----|

 

 

Return to my The Ataris tabs page

The Tablature is Copyright its respective owners.

Sign Up For My Newsletter
Subscribe | Unsubscribe

Site Map | Disclaimer | Privacy Policy | Media Kit | Submissions/Corrections

Website © 2000-2014 mattsmusicpage.com. All rights reserved.

Legal & DMCA: Matt's Music Page has been providing lyrics and tabs in a legal way, paying royalties each year to a few organizations. Then, all lyrics and tabs were removed from the site. Now, there's a new owner to the site, which purchased it August 26, 2014, and he is in negotiation to obtain licensing from BMI at the moment. If you have a specific DMCA request -- please do not hesitate to contact me via the contact button on top. I will do my very best to keep this site fully legal.

Get our toolbar!