Your One-Stop Source For
Music Lyrics
Bass and Guitar Tabs
and More...
Music Lyrics Bass and Guitar Tabs

 

The Tabs Are Below

Learn To Read Tab
Chords Handbook
Corrections & Additions
Get Official Tab
The Ataris tabs @ 911Tabs

CHOICES- The*Ataris

-------------------------------------------------------------------------------

By: Josh Markwordt (synchrony7@aol.com)

 

~ - let ring

7x

7x - strum chord then mute it

5x

 

Intro: (x2)

e|---------------------------------------------------------------------------|

B|---------------------------------------------------------------------------|

G|--7777---------------------------------------------------------------------|

D|--7777---2222---5555---7777------------------------------------------------|

A|--5555---2222---5555---7777------------------------------------------------|

E|---------0000---3333---5555------------------------------------------------|

 

e|---------------------------------------------------------------------------|

B|---------------------------------------------------------------------------|

G|--7777---------------------------------------------------------------------|

D|--7777---2222---5555---7777------------------------------------------------|

A|--5555---2222---5555---7777------------------------------------------------|

E|---------0000---3333---5555------------------------------------------------|

"Well I got a couple things to say.....

e|---------------------------------------------------------------------------|

B|---------------------------------------------------------------------------|

G|---------------------------------------------------------------------------|

D|-----5~---------------------------------------7~---------------------------|

A|-----5~---------------------------------------7~---------------------------|

E|-----3~---------------------------------------5~---------------------------|

"....tonight?(Chorus) I know I've heard it all before And everyone makes

e|---------------------------------------------------------------------------|

B|---------------------------------------------------------------------------|

G|---------------------------------------------------------------------------|

D|-------7---------9-----11------------------------5--------------------7~---|

A|-------7---------9-----11------------------------5--------------------7~---|

E|-------5---------7-----9-------------------------3--------------------5~---|

mistakes these days...hey nobody's pefect ..choices that you make...

e|---------------------------------------------------------------------------|

B|---------------------------------------------------------------------------|

G|--7777---------------------------------------------------------------------|

D|--7777---2222---5555---7777------------------------------------------------|

A|--5555---2222---5555---7777------------------------------------------------|

E|---------0000---3333---5555------------------------------------------------|

"Well I met a girl I thought I loved..."

e|---------------------------------------------------------------------------|

B|---------------------------------------------------------------------------|

G|---------------------------------------------------------------------------|

D|---------------------------------------------------------------------------|

A|-----------------------------------5~--------------------------------------|

E|-----------------------------------5~--------------------------------------|

e|-----------------------------------3~--------------------------------------| "that I wasn't prepared to make."

(Repeat Chorus)

 

Outro:

B|---------------------------------------------------------------------------|

G|---------------------------------------------------------------------------|

D|-7~------------------------------------------------------------------------|

A|-7~------------------------------2~------------------5~--------------------|

E|-5~------------------------------2~------------------5~--------------------|

e|---------------------------------0~------------------3~--------------------|

If you think you've found that one That you really love, Make sure they love you

 

e|---------------------------------------------------------------------------|

B|---------------------------------------------------------------------------|

G|---------------------------------------------------------------------------|

D|---------------------------------------------------------------------------|

A|--7x-----------------------------------------------------------------------|

E|--7x-----------------------------------------------------------------------|

e|--5x-----------------------------------------------------------------------|

back.

 

Any corrections, comments, or questions, just email me. Wanna trade Ataris tabs?

I have some more, just give me an email.

 

 

Return to my The Ataris tabs page

The Tablature is Copyright its respective owners.

Sign Up For My Newsletter
Subscribe | Unsubscribe

Site Map | Disclaimer | Privacy Policy | Media Kit | Submissions/Corrections

Website © 2000-2014 mattsmusicpage.com. All rights reserved.

Legal & DMCA: Matt's Music Page has been providing lyrics and tabs in a legal way, paying royalties each year to a few organizations. Then, all lyrics and tabs were removed from the site. Now, there's a new owner to the site, which purchased it August 26, 2014, and he is in negotiation to obtain licensing from BMI at the moment. If you have a specific DMCA request -- please do not hesitate to contact me via the contact button on top. I will do my very best to keep this site fully legal.

Get our toolbar!

 

1983 SEALED LP Return of the Jedi + 1977 Star Wars Vinyl 2 Record Set - Sci-Fi
$22.5
1983 SEALED LP Return of the Jedi + 1977 Star Wars Vinyl 2 Record Set - Sci-Fi picture


Frank Sinatra - Swingin Lovers & Sept of My Years (Reprise)[LP-Vinyl] RECORDS
$10.0
Frank Sinatra - Swingin Lovers & Sept of My Years (Reprise)[LP-Vinyl] RECORDS picture


Ion Audio Turntable & Vinyl Record Archiver with USB Connector TTUSB10 - EUC
$59.99
Ion Audio Turntable & Vinyl Record Archiver with USB Connector TTUSB10 - EUC picture


Vintage 1975 LP Big Rig Truckers LP Put the Hammer Down - Vinyl Record
$15.99
Vintage 1975 LP Big Rig Truckers LP Put the Hammer Down - Vinyl Record picture


1970`s Sanrio HELLO KITTY Vinyl Record STICKERS Vintage VERY RARE
$0.99
1970`s Sanrio HELLO KITTY Vinyl Record STICKERS Vintage VERY RARE picture