Your One-Stop Source For
Music Lyrics
Bass and Guitar Tabs
and More...
Music Lyrics Bass and Guitar Tabs

 

The Tabs Are Below

Learn To Read Tab
Chords Handbook
Corrections & Additions
Get Official Tab
The Ataris tabs @ 911Tabs

Intro

G|--------------------|

D|--------------------|

A|-7/3-55555555-3-3-3-|

E|--------------------|

 

Verse

G|-------------------|

D|-------------------|

A|----------33333333-| x3

E|-33333333----------|

 

Pre-Chorus

G|------------------------------------|

D|------------------------------------|

A|-55555555-33333333-55555555-3-3-3-3-|

E|------------------------------------|

 

Chorus

G|--------------------------------------------------------------------|

D|--------------------------------------------------------------------|

A|----------55555555----------3-3-3-3------------55555555----------3~-|

E|-33333333----------00000000-----------33333333----------00000000----|

 

Post-Chorus

G|----------------------------------|

D|----------------------------------|

A|----------33333333----------3-3-3-|

E|-33333333----------33333333-------|

 

[Verse]

[Pre-Chorus]

[Chorus]

 

Bridge

G|------------------------------------------------------------------|

D|------------------------------------------------------------------|

A|-----------------------333-------333-------333---5555555555555555-|

E|-3333333333333333--5-5-----5-0-0-----0-5-5-----0------------------|

 

Solo

G|-------------------|----------------|

D|-------------------|----------------|

A|----------33333333-|-55555555-3-3-3-|

E|-33333333----------|----------------|

x3

 

[Verse] x5

[Pre-Chorus]

 

End

G|------------------------------------|--------------------------------------------|

D|------------------------------------|--------------------------------------------|

A|----------55555555----------3-3-3-3-|----------55555555----------3-3-3-3-3-3-3-3-|

E|-33333333----------00000000---------|-33333333----------00000000-----------------|

 

G|--------------------------------------------------------------------|

D|--------------------------------------------------------------------|

A|----------55555555----------33333333-----------55555555----------3~-|

E|-33333333----------00000000-----------33333333----------00000000----|

 

 

Return to my The Ataris bass tabs page

The Tablature is Copyright its respective owners.

Sign Up For My Newsletter
Subscribe | Unsubscribe

Site Map | Disclaimer | Privacy Policy | Media Kit | Submissions/Corrections

Website © 2000-2014 mattsmusicpage.com. All rights reserved.

Legal & DMCA: Matt's Music Page has been providing lyrics and tabs in a legal way, paying royalties each year to a few organizations. Then, all lyrics and tabs were removed from the site. Now, there's a new owner to the site, which purchased it August 26, 2014, and he is in negotiation to obtain licensing from BMI at the moment. If you have a specific DMCA request -- please do not hesitate to contact me via the contact button on top. I will do my very best to keep this site fully legal.

Get our toolbar!

 

Starbucks You Are Here Coffee Mug/Cup KENTUCKY - Horses, Banjo, Blue, White
$19.99
Starbucks You Are Here Coffee Mug/Cup KENTUCKY - Horses, Banjo, Blue, White picture


KNOWLES ROCKWELL HERITAGE "THE BANJO PLAYER" FIRST EDITION 1989 PLATE COA
$5.99
KNOWLES ROCKWELL HERITAGE


Vintage Postcard 1981 Disney World Banjo Kings Main Street USA 1981 Postmark
$4.99
 Vintage Postcard 1981 Disney World Banjo Kings Main Street USA 1981 Postmark picture


Banjo Barometer With Thermometer Hygrometer 490mm
$84.76
Banjo Barometer With Thermometer Hygrometer 490mm picture


ANTIQUE JAPANESE NIPPON FIGURINE SET OF 3 WOMEN GEISHA PLAYING DRUM BANJO FAN
$24.0
ANTIQUE JAPANESE NIPPON FIGURINE SET OF 3 WOMEN GEISHA PLAYING DRUM BANJO FAN picture