Your One-Stop Source For
Music Lyrics
Bass and Guitar Tabs
and More...
Music Lyrics Bass and Guitar Tabs

 

The Tabs Are Below

Learn To Read Tab
Chords Handbook
Corrections & Additions
Get Official Tab
The Ataris tabs @ 911Tabs

tabbed by: punkerbabehardcore

This is my first tab, but I think this is correct.

 

Intro:

G----------------------------------------------------------------------------

D----------------------------------------------------------------------------

A-------------------------------------------------------------5-5-5-5-5-5-5-5

E-5-5-5-5-5-5-5-5-4-4-4-4-4-4-4-4-2-2-2-2-2-2-2-2----------------------------

 

G---------------------------------------------------

D---------------------------------------------------

A-------------------------------------------------5~

E-5-5-5-5-5-5-5-5-4-4-4-4-4-4-4-4-2-2-2-2-2-2-2-2--- Repeat both 2x

 

Verse 1:

(I really wanna call you…/I probably shouldn’t tell you…)

G--------------------------------------------------------------------

D--------------------------------------------------------------------

A---------------------7-7-7-7-7-7-7-7/9-9-9-9-7-7-7-7-5-5-5-5-5-5-5-5

E-5-5-5-5-5-5-5-5---------------------------------------------------- Repeat 2x

 

Prechorus:

(I guess I’m not…)

G-----------------

D-----------------

A-----------------

E-2(12x)4-5-5555-5

 

Chorus:

(Goodbye…)

G---------------------------

D---------------------------

A-------------------------5~

E-5-5555554-444444-2-2-2-2--

 

(Until next time…)

G----------------

D----------------

A-------7-5-55-7~

E-7(x12)---------

 

Verse 2:

(You told me that you loved me…/I really start to trust you…)

G--------------------------------------------------------------------

D--------------------------------------------------------------------

A---------------------7-7-7-7-7-7-7-7/9-9-9-9-9-9-9-9-5-5-5-5-5-5-5-5

E-5-5-5-5-5-5-5-5---------------------------------------------------- Repeat x2

 

Repeat Prechorus and Chorus

 

Bridge/Outro:

(I guess that I’m wrong…/I guess that it’s you…)

G----------------------------

D----------------------------

A----------------------5(14x)

E-5(14x)-4(14x)-2(14x)------- Repeat 5x; then:

 

G--------------------------

D--------------------------

A--------------------------

E-5(14x)-4(14x)-2-222-2-222 And back to:

 

G---------------------------------

D---------------------------------

A---------------------------5(14x)

E-5(14x)-4(14x)-2(14x)------------ Repeat 3x

 

End on E-5~

 

 

 

 

Return to my The Ataris bass tabs page

The Tablature is Copyright its respective owners.

Sign Up For My Newsletter
Subscribe | Unsubscribe

Site Map | Disclaimer | Privacy Policy | Media Kit | Submissions/Corrections

Website © 2000-2014 mattsmusicpage.com. All rights reserved.

Legal & DMCA: Matt's Music Page has been providing lyrics and tabs in a legal way, paying royalties each year to a few organizations. Then, all lyrics and tabs were removed from the site. Now, there's a new owner to the site, which purchased it August 26, 2014, and he is in negotiation to obtain licensing from BMI at the moment. If you have a specific DMCA request -- please do not hesitate to contact me via the contact button on top. I will do my very best to keep this site fully legal.

Get our toolbar!