Your One-Stop Source For
Music Lyrics
Bass and Guitar Tabs
and More...
Music Lyrics Bass and Guitar Tabs

 

The Tabs Are Below

Learn To Read Tab
Chords Handbook
Corrections & Additions
Get Official Tab
The Ataris tabs @ 911Tabs

It`s a pretty fast song but if you practice you`ll find out it`s

easy to play.

Put your bass in normal tuning -> G D A E

Then play this:

 

intro

g -------|

d -------|

a --6r---|

e -------|

 

verse 1

g ---------------------------------------------|

d ---------------------------------------------|

a -66666666-33333333--------3333111------------|

e -------------------444444---------44444444---|

 

g -----------------------------------|

d -----------------------------------|

a -66666666-33333333----33-----------|

e -------------------44----44444444--|

 

g ----------------------------------------------------|

d ----------------------------------------------------|

a -------------------66666666-33333333----------6666--|

e -66666666-33333333-------------------66666666-------|

 

Chorus

g ---------------------|

d ---------------------|

a -----------11111111--| 2x

e -444444-11-----------|

 

bridge

g --3-1-0-3--|

d -----------|

a -----------|

e -----------|

 

then play the hole song one more time and that`s it.

For questions or other things mail me at: carfield2001@hotmail.com

 

 

Return to my The Ataris bass tabs page

The Tablature is Copyright its respective owners.

Sign Up For My Newsletter
Subscribe | Unsubscribe

Site Map | Disclaimer | Privacy Policy | Media Kit | Submissions/Corrections

Website © 2000-2014 mattsmusicpage.com. All rights reserved.

Legal & DMCA: Matt's Music Page has been providing lyrics and tabs in a legal way, paying royalties each year to a few organizations. Then, all lyrics and tabs were removed from the site. Now, there's a new owner to the site, which purchased it August 26, 2014, and he is in negotiation to obtain licensing from BMI at the moment. If you have a specific DMCA request -- please do not hesitate to contact me via the contact button on top. I will do my very best to keep this site fully legal.

Get our toolbar!