Your One-Stop Source For
Music Lyrics
Bass and Guitar Tabs
and More...
>Music Lyrics Bass and Guitar Tabs

 

The Tabs Are Below

Learn To Read Tab
Chords Handbook
Corrections & Additions
Get Official Tab
SOAD tabs @ 911Tabs

Band: System Of A Down

Song: Thetawaves

Album: Steal This Album!

Tabbed By: Joey Hegedusich (sk8punk***@yahoo.com)

 

I have the chords here…figure out the timing yourself :-P…lol,,,I know it isn’t

100% correct…but it sounds good when I play it…if you know any corrections that

is needed…feel free to correct:-D

 

*-figure out timing yourself

 

Intro

 

()- harmonics

 

2|--------------(5)---(5)-----(5)---(5)-------|

3|-6*-7*----6-6----(5)----6-6----(5)----7*----|

4|-6*-7*-5*-6-6-----------6-6-----------7*-5*-|

5|-4*-5*-5*-4-4-----------4-4-----------5*-5*-|

6|-------5*--------------------------------5*-|

 

Verse*

 

3|-----------------------(4)(4)----(4)(4)-|

4|-5-5-5-7-5-5-5-7-5-4-4-(4)(4)4-4-(4)(4)-|

5|-5-5-5-7-5-5-5-7-5-4-4-------4-4--------|

6|-5-5-5-7-5-5-5-7-5-4-4-------4-4--------|

 

3|----------------------(4)---(4)---(4)------(4)----|

4|-5-5-5-7-5-5-5-7-5-4--(4)-4-(4)-4----(4)-4----(4)-|

5|-5-5-5-7-5-5-5-7-5-4------4-----4--------4--------|

6|-5-5-5-7-5-5-5-7-5-4------4-----4--------4--------|

 

Verse 2 (...”ALL RISE”)

 

4|-5-5-0-0-0-0-5-5-0-0-0-0-4-4-4-4-4-4-|

5|-5-5-0-0-0-0-5-5-0-0-0-0-4-4-4-4-4-4-|

6|-5-5-0-0-0-0-5-5-0-0-0-0-4-4-4-4-4-4-|

 

Verse 3

 

4|-4-5-4-5/7-5-4-4-5-7-9-11-12-|

5|-4-5-4-5/7-5-4-4-5-7-9-11-12-|

6|-4-5-4-5/7-5-4-4-5-7-9-11-12-|

 

4|-4-5-4-5/7-5-4-9-11-9-11/12-11-9-|

5|-4-5-4-5/7-5-4-9-11-9-11/12-11-9-|

6|-4-5-4-5/7-5-4-9-11-9-11/12-11-9-|

 

or

 

3|---------------------4-6-7-|

4|-4-5-4-5/7-5-4-4-5-7-x-x-x-|

5|-4-5-4-5/7-5-4-4-5-7-2-4-6-|

6|-4-5-4-5/7-5-4-4-5-7-------|

 

3|---------------4-6-4-7-6-4-|

4|-4-5-4-5/7-5-4-x-x-x-x-x-x-|

5|-4-5-4-5/7-5-4-2-4-2-5-4-2-|

6|-4-5-4-5/7-5-4-------------|

 

 

 

 

Solo (*-tremolo pick)

 

1|-------------------------------14-|RE

2|-12-14-15-14-------12-14-15-14----|PE

3|-------------12-11----------------|AT

 

1|-15-14-12-14-12-10-12-10-9-10-9-

 

1|-12-10-9-10-10-9-7-8-9-9-9-9—9\8\7-7-7-7-6-6-6-6

 

you can figure out the rest from here...have fun!!!

 

 

Return to my System of a Down tabs page

The Tablature is Copyright its respective owners.

Sign Up For My Newsletter
Subscribe | Unsubscribe

Site Map | Disclaimer | Privacy Policy | Media Kit | Submissions/Corrections

Website © 2000-2014 mattsmusicpage.com. All rights reserved.

Legal & DMCA: Matt's Music Page has been providing lyrics and tabs in a legal way, paying royalties each year to a few organizations. Then, all lyrics and tabs were removed from the site. Now, there's a new owner to the site, which purchased it August 26, 2014, and he is in negotiation to obtain licensing from BMI at the moment. If you have a specific DMCA request -- please do not hesitate to contact me via the contact button on top. I will do my very best to keep this site fully legal.

Get our toolbar!

 

Rolling Stones Rock Tumbler Refill Kit Sealed
$4.99
Rolling Stones Rock Tumbler Refill Kit Sealed  picture


VTG 1981 Rolling Stones Mick Jagger "Stoned at the Dome" SEATTLE WA THORNBURG
$69.99
VTG 1981 Rolling Stones Mick Jagger


VINTAGE ROLLING STONES TONGUE ENAMEL PIN NICE
$9.99
VINTAGE ROLLING STONES TONGUE ENAMEL PIN  NICE picture


ROLLING STONES - ROCK & ROLL "ZIPPO WINDPROOF LIGHTER" BLACK MATTE {NIB}
$19.75
ROLLING STONES - ROCK & ROLL


ROLLING STONES ROCK & ROLL RULES "ZIPPO WINDPROOF LIGHTER" BLACK MATTE {NIB}
$20.2
ROLLING STONES  ROCK & ROLL RULES