Your One-Stop Source For
Music Lyrics
Bass and Guitar Tabs
and More...
Music Lyrics Bass and Guitar Tabs

 

The Tabs Are Below

Learn To Read Tab
Chords Handbook
Corrections & Additions
Get Official Tab
SOAD tabs @ 911Tabs

U-Fig - System of a down

-------------------------------------------------------------------------------

Tabbed by:Ryan Kozicki

Email:rydeen@gmail.com

 

Tuning: Db Ab Db Gb Bb Eb

 

Intro

 

|---------------------------------------|-------|

|---------------------------------------| |

|7-7-7-7--9-9-9-9--10-10-10-10---10-9-5-| X2 |

|0-0-0-0--0-0-0-0--0--0--0--0----0--0-0-| | X2

|---------------------------------------| |

|---------------------------------------| |

|

|--------------------| |

|--6---6-----5---5---| |

|-3--33--3--3--33--3-| |

|--------------------| |

|--------------------| |

|--------------------|--------------------------|

 

Verse

 

|--------------------------|

|--------------------------|

|--------------------------|X8

|--------------------------|

|--------------------------|

|-0h2-2-2-2-2--3p2-2-2-2-2-|

 

Chorus

 

|-------------------------------------------|

|-------------------------------------------|

|-------------------------------------------|

|-7-7-7----5---7-7--------------------------|X2

|-5-5-5---3-3--5-5--6-5-6-5-6-5-6-5-6-5-6-5-|

|-------------------------------------------|

 

Verse

 

|--------------------------|

|--------------------------|

|--------------------------|X8

|--------------------------|

|--------------------------|

|-0h2-2-2-2-2--3p2-2-2-2-2-|

 

Chorus

 

|-------------------------------------------|

|-------------------------------------------|

|-------------------------------------------|

|-7-7-7----5---7-7--------------------------|X4

|-5-5-5---3-3--5-5--6-5-6-5-6-5-6-5-6-5-6-5-|

|-------------------------------------------|

 

 

 

|---------------------------------------|

|---------------------------------------|

|7-7-7-7--9-9-9-9--10-10-10-10---10-9-5-| X2

|0-0-0-0--0-0-0-0--0--0--0--0----0--0-0-|

|---------------------------------------|

|---------------------------------------|

 

|--------------------|

|--6---6-----5---5---|

|-3--33--3--3--33--3-|

|--------------------|

|--------------------|

|--------------------|

 

|---------------------------------------|

|---------------------------------------|

|7-7-7-7--9-9-9-9--10-10-10-10---10-9-5-|

|0-0-0-0--0-0-0-0--0--0--0--0----0--0-0-|

|---------------------------------------|

|---------------------------------------|

 

|--------------------|

|--6---6-----5---5---|

|-3--33--3--3--33--3-|

|--------------------|

|--------------------|X2

|--------------------|

 

Bridge

 

|-----------------|

|-----------------|

|-14--14-14-14-14-|

|-----------------| X8

|-12--12-12-12-12-|

|-----------------|

 

Solo

 

(Guitar 1)

|------------------------------------------------------------|

|------------------------------------------------------------|

|-14--14-14-14-14--14--14-14-14-14------------------15-15-14-|

|-15--15-15-15-15--15--15-15-15-15-14--14-14-14-14-----------|

|----------------------------------15--15-15-15-15--15-15-15-|

|------------------------------------------------------------|

 

|-----------------------------------------------------------------|

|-----------------------------------------------------------------|

|-----------------------------------------------------------------|

|-15--15-15-15-15--15--15-15-15--15--15-15-15-15--15--15-15-15-15-|

|-13--13-13-13-13--13--13-13-12--13--13-13-13-13--13--13-13-13-13-|

|-----------------------------------------------------------------|

 

(Guitar 2)

|------------------------------------------------------------|

|-15-15-15-15-15-15-15-15-15-15-15-15-15-15-15-15-15-15\-----|

|------------------------------------------------------------|

|------------------------------------------------------------|

|------------------------------------------------------------|

|------------------------------------------------------------|

 

(Guitar 1)

|------------------------------------------------------------|

|------------------------------------------------------------|

|-14--14-14-14-14--14--14-14-14-14------------------15-15-14-|

|-15--15-15-15-15--15--15-15-15-15-14--14-14-14-14-----------|

|----------------------------------15--15-15-15-15--15-15-15-|

|------------------------------------------------------------|

 

|-----------------------------------------------------------------|

|-----------------------------------------------------------------|

|-----------------------------------------------------------------|

|-15--15-15-15-15--15--15-15-15--15--15-15-15-15--15--15-15-15-15-|

|-13--13-13-13-13--13--13-13-12--13--13-13-13-13--13--13-13-13-13-|

|-----------------------------------------------------------------|

 

(Guitar 2)

|--------------------------------------------|

|--------------------------------------------|

|-15-15-14-14--12-------15-------------------|

|----------------15-14-----12-12-------------|

|--------------------------------15-13-12-13-|

|--------------------------------------------|

 

Verse

 

|--------------------------|

|--------------------------|

|--------------------------|X4

|--------------------------|

|--------------------------|

|-0h2-2-2-2-2--3p2-2-2-2-2-|

 

(Guitar 1)

|------------------------------------------------------------|

|------------------------------------------------------------|

|-14--14-14-14-14--14--14-14-14-14------------------15-15-14-|

|-15--15-15-15-15--15--15-15-15-15-14--14-14-14-14-----------|

|----------------------------------15--15-15-15-15--15-15-15-|

|------------------------------------------------------------|

 

 

(Guitar 2)

|-17-17-17-17-17-17- -18-18-18-18-18-18-

|-15-15-15-15-15-15- -15-15-15-15-15-15-

|-------------------X2 ------------------- X2

|------------------- -------------------

|------------------- -------------------

|------------------- -------------------

 

----------------|

-15-13----------|

-15-14-15-------|

-------17-------|

----------12-13-|

----------------|

 

Verse

 

|--------------------------|

|--------------------------|

|--------------------------|X4

|--------------------------|

|--------------------------|

|-0h2-2-2-2-2--3p2-2-2-2-2-|

 

Chorus

 

|-------------------------------------------|

|-------------------------------------------|

|-------------------------------------------|

|-7-7-7----5---7-7--------------------------|X4

|-5-5-5---3-3--5-5--6-5-6-5-6-5-6-5-6-5-6-5-| Play 6-5 (4X) at the end

|-------------------------------------------|

 

Outro

 

|---------------------------------------|

|---------------------------------------|

|7-7-7-7--9-9-9-9--10-10-10-10---10-9-5-| X2

|0-0-0-0--0-0-0-0--0--0--0--0----0--0-0-|

|---------------------------------------|

|---------------------------------------|

 

|-------------------------|

|-------------------------|

|---10----10-----9----9---|

|------8-----8-----8----8-|

|--------8-----------8----| X2

|-8------------8----------|

 

|--------------------------------------------------------------|

|--------------------------------------------------------------|

|---9-----9-----9-----9-----9-----9-----9----9---------9----14-|

|-----7-----7-----7-----7-----7-----7-----7----7------7----12--|

|-------7-----------7-----------7-----7-----7----7---7----12---|

|-7----------7------------7-------------------------7----12----|

 

End

 

 

Return to my System of a Down tabs page

The Tablature is Copyright its respective owners.

Sign Up For My Newsletter
Subscribe | Unsubscribe

Site Map | Disclaimer | Privacy Policy | Media Kit | Submissions/Corrections

Website © 2000-2014 mattsmusicpage.com. All rights reserved.

Get our toolbar!