Your One-Stop Source For
Music Lyrics
Bass and Guitar Tabs
and More...
Music Lyrics Bass and Guitar Tabs

 

The Tabs Are Below

Learn To Read Tab
Chords Handbook
Corrections & Additions
Get Official Tab
SOAD tabs @ 911Tabs

OK here is the 2nd incredibly accurate tab from taborama that UG didnt have so here it is

I take only credit for finding it

 

 

 

TENTATIVE

As recorded by System Of A Down

(From the 2005 Album HYPNOTIZE)

 

Words and Music by Daron Malakian

Transcribed by CUBErt

 

Gtr I (Db Ab Db Gb Bb Eb) - 'Untitled'

Gtr II (Db Ab Db Gb Bb Eb) - 'Untitled'

Gtr III (Db Ab Db Gb Bb Eb) - 'Untitled'

Gtr IV (Db Ab Db Gb Bb Eb) - 'Untitled'

Gtr V (Db Ab Db Gb Bb Eb) - 'Untitled'

Gtr VI (Db Ab Db Gb Bb Eb) - 'Untitled'

 

Intro

Q=160

Gb5 N.C. Gb5 N.C.

4/4

Gtr I

PM------------| PM----------------|

Q E S S S S S S S S E +E E E S S S S S S S S S S

||----------------------------|---------------------------------||

||o---------------------------|--------------------------------o||

||--12--12-----------------12-|-(12)-12-12----------------------||

||--11--11-----------------11-|-(11)-11-11----------------------||

||o-10--10-----------------10-|-(10)-10-10---------------------o||

||---------0-0-0-0-0-0-0-0----|------------0-0-0-0-0-0-0-0-0-0--||

 

 

Gb5 N.C. Gb5 N.C.

PM------------| PM----------------|

Q E S S S S S S S S E +E E E S S S S S S S S S S

||----------------------------|---------------------------------||

||o---------------------------|--------------------------------o||

||--12--12-----------------12-|-(12)-12-12----------------------||

||--11--11-----------------11-|-(11)-11-11----------------------||

||o-10--10-----------------10-|-(10)-10-10---------------------o||

||---------0-0-0-0-0-0-0-0----|------------0-0-0-0-0-0-0-0-0-0--||

 

 

Verse

Gb5 N.C. Gb5 N.C.

PM------------| PM----------------|

Q E S S S S S S S S E +E E E S S S S S S S S S S 4x

||----------------------------|---------------------------------||

||o---------------------------|--------------------------------o||

||--12--12-----------------12-|-(12)-12-12----------------------||

||--11--11-----------------11-|-(11)-11-11----------------------||

||o-10--10-----------------10-|-(10)-10-10---------------------o||

||---------0-0-0-0-0-0-0-0----|------------0-0-0-0-0-0-0-0-0-0--||

 

 

Pre-Chorus

D5 A5

PM------------------| PM------------------------------| PM------|

E E E E E E E E E E E E E E E E E E E E E E E E E E E E E E E E

|-----------------|-----------------|-----------------|-----------------|

|-----------------|-----------------|-----------------|-----------------|

|-----------------|-----------------|-----------------|-----------------|

|-----------------|-----------------|-----------------|-----------------|

|-0-0---0-0-0-0-0-|-0-0---0-0-0-0-0-|-7-7---7-7-7-7-7-|-7-7---7-7-7-7-7-|

|-0-0---0-0-0-0-0-|-0-0---0-0-0-0-0-|-7-7---7-7-7-7-7-|-7-7---7-7-7-7-7-|

 

 

F5

PM-------------------------| PM-------------

E E E E E E E E E E E E E E E E

|------------------------|------------------------|

|------------------------|------------------------|

|------------------------|------------------------|

|-10-10---10-10-10-10-10-|-10-10---10-10-10-10-10-|

|--8--8----8--8--8--8--8-|--8--8----8--8--8--8--8-|

|------------------------|------------------------|

 

 

A5

---------------------|

E E E E E E E E E E E E E E E E

|-----------------|-----------------|

|-----------------|-----------------|

|-----------------|-----------------|

|-----------------|-----------------|

|-7-7-7-7-7-7-7-7-|-7-7-7-7-7-7-7-7-|

|-7-7-7-7-7-7-7-7-|-7-7-7-7-7-7-7-7-|

 

 

Chorus

D5 Bb5

W +W W +W

|----------|------------|----------|--------|

|----------|------------|----------|--------|

|----------|------------|----------|--------|

|-0--------|-(0)--------|-8--------|-(8)----|

|-0--------|-(0)--------|-8--------|-(8)----|

|-0--------|-(0)--------|-8--------|-(8)----|

 

 

A5 F5 C5

W +H. E E H. Q W

|----------|--------------|--------------|-------|

|----------|--------------|--------------|-------|

|----------|--------------|-10-------10--|-------|

|-7--------|-(7)------7-7-|-10-------10--|-10----|

|-7--------|-(7)------7-7-|--8--------8--|-10----|

|-7--------|-(7)------7-7-|--------------|-10----|

 

 

Pre-Verse

Gb5 N.C. Gb5 N.C.

PM------------| PM----------------|

Q E S S S S S S S S E +E E E S S S S S S S S S S

||----------------------------|---------------------------------||

||o---------------------------|--------------------------------o||

||--12--12-----------------12-|-(12)-12-12----------------------||

||--11--11-----------------11-|-(11)-11-11----------------------||

||o-10--10-----------------10-|-(10)-10-10---------------------o||

||---------0-0-0-0-0-0-0-0----|------------0-0-0-0-0-0-0-0-0-0--||

 

 

Verse

Gb5 N.C. Gb5 N.C.

PM------------| PM----------------|

Q E S S S S S S S S E +E E E S S S S S S S S S S 4x

||----------------------------|---------------------------------||

||o---------------------------|--------------------------------o||

||--12--12-----------------12-|-(12)-12-12----------------------||

||--11--11-----------------11-|-(11)-11-11----------------------||

||o-10--10-----------------10-|-(10)-10-10---------------------o||

||---------0-0-0-0-0-0-0-0----|------------0-0-0-0-0-0-0-0-0-0--||

 

 

Pre-Chorus

D5 A5

PM------------------| PM------------------------------| PM------|

E E E E E E E E E E E E E E E E E E E E E E E E E E E E E E E E

|-----------------|-----------------|-----------------|-----------------|

|-----------------|-----------------|-----------------|-----------------|

|-----------------|-----------------|-----------------|-----------------|

|-----------------|-----------------|-----------------|-----------------|

|-0-0---0-0-0-0-0-|-0-0---0-0-0-0-0-|-7-7---7-7-7-7-7-|-7-7---7-7-7-7-7-|

|-0-0---0-0-0-0-0-|-0-0---0-0-0-0-0-|-7-7---7-7-7-7-7-|-7-7---7-7-7-7-7-|

 

 

F5

PM-------------------------| PM-------------

E E E E E E E E E E E E E E E E

|------------------------|------------------------|

|------------------------|------------------------|

|------------------------|------------------------|

|-10-10---10-10-10-10-10-|-10-10---10-10-10-10-10-|

|--8--8----8--8--8--8--8-|--8--8----8--8--8--8--8-|

|------------------------|------------------------|

 

 

A5

---------------------|

E E E E E E E E E E E E E E E E

|-----------------|-----------------|

|-----------------|-----------------|

|-----------------|-----------------|

|-----------------|-----------------|

|-7-7-7-7-7-7-7-7-|-7-7-7-7-7-7-7-7-|

|-7-7-7-7-7-7-7-7-|-7-7-7-7-7-7-7-7-|

 

 

Chorus

D5 Bb5

W +H Q E E W +H E E E E

||-----------|---------------|----------|-----------------|

||o----------|---------------|----------|-----------------|

||-----------|---------------|----------|-----------------|

||--0--------|-(0)----0--0-0-|-8--------|-(8)----8-8-8-8--|

||o-0--------|-(0)----0--0-0-|-8--------|-(8)----8-8-8-8--|

||--0--------|-(0)----0--0-0-|-8--------|-(8)----8-8-8-8--|

 

 

A5 F5 C5

W +H Q E E H. E E W

|----------|---------------|----------------|--------||

|----------|---------------|----------------|-------o||

|----------|---------------|-10-------10-10-|--------||

|-7--------|-(7)----7--7-7-|-10-------10-10-|-10-----||

|-7--------|-(7)----7--7-7-|--8--------8--8-|-10----o||

|-7--------|-(7)----7--7-7-|----------------|-10-----||

 

 

Interlude

D5

>

PM----------------|

W +W

|------------------|--------------------|

|------------------|--------------------|

|------------------|--------------------|

|--0---------------|--(0)---------------|

|--0---------------|--(0)---------------|

|--0---------------|--(0)---------------|

|

| Gtr II

| H E E +Q +H E E +Q

|------------------|--------------------|

|------------------|--------------------|

|-------9----------|---------9----------|

|---------10-(10)--|-(10)------10-(10)--|

|------------------|--------------------|

|--0---------------|--------------------|

|

| Gtr IV

| W +H. +Q

|-10---------------|-(10)---------(10)s=|

|------------------|--------------------|

|------------------|--------------------|

|------------------|--------------------|

|------------------|--------------------|

|------------------|--------------------|

 

 

Fmaj7sus4/Bb

Gtr III

<

Q +H. +W

|-13---(13)------------|-(13)-----------------|

|----------------------|----------------------|

|-10---(10)------------|-(10)-----------------|

|----------------------|----------------------|

|----------------------|----------------------|

|----------------------|----------------------|

|

| E E E E E E E E E E E E E E E E

|----------------------|----------------------|

|----------------------|----------------------|

|-------------9-----10-|----------9------9----|

|---------------8------|---8--------8-------8-|

|----8------8-----8----|------8-------8-------|

|--8-----8-------------|--------8-------------|

|

| W +H. +Q

|--6-------------------|--(6)-----------(6)---|

|----------------------|----------------------|

|----------------------|----------------------|

|----------------------|----------------------|

|----------------------|----------------------|

|----------------------|----------------------|

 

 

A5

Gtr II

Q Q E E E E E E E E E E E E

|---------------------|--------------------|

|---------------------|--------------------|

|------------9-----10-|----------9-----9---|

|--------------7------|---7--------7-----7-|

|--------7-------7----|--------7-----------|

|--7------------------|------7-------7-----|

|

| Gtr IV

| >

| +W +W

|-(6)-----------------|--(6)---------------|

|---------------------|--------------------|

|---------------------|--------------------|

|---------------------|--------------------|

|---------------------|--------------------|

|---------------------|--------------------|

|

| Gtr III

| <

| Q +H. +W

|-15---(15)-----------|-(15)---------------|

|---------------------|--------------------|

|-12---(12)-----------|-(12)---------------|

|---------------------|--------------------|

|---------------------|--------------------|

|---------------------|--------------------|

 

 

F A5

E E E E E E E E Q E E E E E E

|----------------------------|------------------------------|

|----------------10----------|------------------------------|

|---------10--------10----10-|------------------9-----------|

|-----10------10-------10----|----------------------7-----7-|

|---8------------------------|----------7--------------7----|

|----------------------------|---7----------7---------------|

|

| Gtr V

| E E E E E E E E E E E E E E E E

|-----13------13----13----13-|-----17--17--17-(17)-17-17-17-|

|-/15-----15-----15----15----|-/18-----18--18-(18)-18-18-18-|

|----------------------------|------------------------------|

|----------------------------|------------------------------|

|----------------------------|------------------------------|

|----------------------------|------------------------------|

|

| < <

| Q +H. Q +H.

|--17----(17)----------------|--15----(15)------------------|

|----------------------------|------------------------------|

|--14----(14)----------------|--12----(12)------------------|

|----------------------------|------------------------------|

|----------------------------|------------------------------|

|----------------------------|------------------------------|

 

 

N.C.

H E E +Q +H E E +Q

|----------------------|--------------------|

|----------------------|--------------------|

|-----------9----------|---------9----------|

|-------------10-(10)--|-(10)------10-(10)--|

|----------------------|--------------------|

|--0-------------------|--------------------|

|

| Gtr IV

| W +H. +Q

|-10-------------------|-(10)---------(10)s=|

|----------------------|--------------------|

|----------------------|--------------------|

|----------------------|--------------------|

|----------------------|--------------------|

|----------------------|--------------------|

|

| <

| Q +H. +W

|-10--(10)-------------|-(10)---------------|

|----------------------|--------------------|

|--7---(7)-------------|--(7)---------------|

|----------------------|--------------------|

|----------------------|--------------------|

|----------------------|--------------------|

 

 

Fmaj7sus4/Bb

E E E E E E E E E E E E E E E E

|----------------------|----------------------|

|----------------------|----------------------|

|-------------9-----10-|----------9------9----|

|---------------8------|---8--------8-------8-|

|----8------8-----8----|------8-------8-------|

|--8-----8-------------|--------8-------------|

|

| W +H. +Q

|--6-------------------|--(6)-----------(6)---|

|----------------------|----------------------|

|----------------------|----------------------|

|----------------------|----------------------|

|----------------------|----------------------|

|----------------------|----------------------|

|

| <

| Q +H. +W

|-13---(13)------------|-(13)-----------------|

|----------------------|----------------------|

|-10---(10)------------|-(10)-----------------|

|----------------------|----------------------|

|----------------------|----------------------|

|----------------------|----------------------|

 

 

A5

Q Q E E E E E E E E E E E E

|---------------------|--------------------|

|---------------------|--------------------|

|------------9-----10-|----------9-----9---|

|--------------7------|---7--------7-----7-|

|--------7-------7----|--------7-----------|

|--7------------------|------7-------7-----|

|

| >

| +W +W

|-(6)-----------------|--(6)---------------|

|---------------------|--------------------|

|---------------------|--------------------|

|---------------------|--------------------|

|---------------------|--------------------|

|---------------------|--------------------|

|

| <

| Q +H. +W

|-12---(12)-----------|-(12)---------------|

|---------------------|--------------------|

|--9----(9)-----------|--(9)---------------|

|---------------------|--------------------|

|---------------------|--------------------|

|---------------------|--------------------|

 

 

F A5

E E E E E E E E Q E E E E E E

|----------------------------|---------------------------|

|----------------10----------|---------------------------|

|---------10--------10----10-|----------------9----------|

|-----10------10-------10----|-------------------7-----7-|

|---8------------------------|---------7------------7----|

|----------------------------|--7----------7-------------|

|

| Gtr V

| E E E E E E E E E E E E E E E E

|-/13-13--13--13-13-13-13-13-|-12-12--12--12-12-12-12-12-|

|-/13-13--13--13-13-13-13-13-|-13-13--13--13-13-13-13-13-|

|----------------------------|---------------------------|

|----------------------------|---------------------------|

|----------------------------|---------------------------|

|----------------------------|---------------------------|

|

| < <

| Q +H. Q +H.

|--13----(13)----------------|-12----(12)----------------|

|----------------------------|---------------------------|

|--10----(10)----------------|--9-----(9)----------------|

|----------------------------|---------------------------|

|----------------------------|---------------------------|

|----------------------------|---------------------------|

 

 

N.C.

Gtr VI

E E E E E E E E E E E E E E E E

|-----------------------------|-----------------------------|

|-----------------------------|-----------------------------|

|-10p=9-------10p==9----10p=9-|----10p==9-------10p=9----10p|

|--------12----------12-------|-12----------12--------12----|

|-----------------------------|-----------------------------|

|-----------------------------|-----------------------------|

|

| Gtr V

| E E E E E E E E E E E E E E E E

|-10-10--10---10--10-10-10-10-|-10-10--10---10--10-10-10-10-|

|-10-10--10---10--10-10-10-10-|-10-10--10---10--10-10-10-10-|

|-----------------------------|-----------------------------|

|-----------------------------|-----------------------------|

|-----------------------------|-----------------------------|

|-----------------------------|-----------------------------|

|

| Gtr IV

| Q +E +E H Q +E +E H

|-10----(10)-(10)s=5----------|-12----(12)-(12)s=5----------|

|-----------------------------|-----------------------------|

|-----------------------------|-----------------------------|

|-----------------------------|-----------------------------|

|-----------------------------|-----------------------------|

|-----------------------------|-----------------------------|

 

 

E E E E E E E E E E E E E E E E

|----------------------------------|-----------------------------|

|----------------------------------|-----------------------------|

|---9-----10p===9-----10p==9-------|-10p=9-------10p==9----10p=9-|

|-----12-----------12----------12--|--------12----------12-------|

|----------------------------------|-----------------------------|

|----------------------------------|-----------------------------|

|

| E E E E E E E E E E E E E E E E

|-/13-13--13---13--13-13--13---13--|-13-13--13---13--13-13-13-13-|

|-/13-13--13---13--13-13--13---13--|-13-13--13---13--13-13-13-13-|

|----------------------------------|-----------------------------|

|----------------------------------|-----------------------------|

|----------------------------------|-----------------------------|

|----------------------------------|-----------------------------|

|

| Q +E +E Q +E +E Q +E +E Q Q

|--13----(13)-(13)s12----(12)-(12)s|=10----(10)-(10)s=8----12----|

|----------------------------------|-----------------------------|

|----------------------------------|-----------------------------|

|----------------------------------|-----------------------------|

|----------------------------------|-----------------------------|

|----------------------------------|-----------------------------|

 

 

N.C.

E E E E E E E E E E E E E E E E

|-------------------------|---------------------------|

|-------------------------|---------------------------|

|-10p=9----10p=9----10p=9-|------10p=9----10p=9----10p|

|-------12-------12-------|--12--------12-------12----|

|-------------------------|---------------------------|

|-------------------------|---------------------------|

|

| E E E E E E E E E E E E E E E E

|-12-12-12-12-12-12-12-12-|--12--12-12-12-12-12-12-12-|

|-13-13-13-13-13-13-13-13-|--13--13-13-13-13-13-13-13-|

|-------------------------|---------------------------|

|-------------------------|---------------------------|

|-------------------------|---------------------------|

|-------------------------|---------------------------|

|

| Gtr IV

| W +W

|-------------------------|---------------------------|

|-10----------------------|-(10)----------------------|

|-------------------------|---------------------------|

|-------------------------|---------------------------|

|-------------------------|---------------------------|

|-------------------------|---------------------------|

 

 

E E E E E E E E E E E E E E E E

|--------------------------|-------------------------|

|--------------------------|-------------------------|

|---9----10p=9----10p=9----|-10p=9----10p=9----10p=9-|

|-----12-------12-------12-|-------12-------12-------|

|--------------------------|-------------------------|

|--------------------------|-------------------------|

|

| E E E E E E E E E E E E E E E E

|-/13-13-13-13-13-13-13-13-|-12-12-12-12-12-12-12-12-|

|--13-13-13-13-13-13-13-13-|-13-13-13-13-13-13-13-13-|

|--------------------------|-------------------------|

|--------------------------|-------------------------|

|--------------------------|-------------------------|

|--------------------------|-------------------------|

|

| W W

|--------------------------|-------------------------|

|--------------------------|-------------------------|

|--------------------------|-------------------------|

|--------------------------|-------------------------|

|--------------------------|-------------------------|

|--------------------------|-------------------------|

 

 

N.C.

Gtr VI

E E E E E E E E E E E E E E E E

|-----------------------------|-----------------------------|

|-----------------------------|-----------------------------|

|----10p==9-------10p=9----10p|==9-----10p===9-----10p=9----|

|-12----------12--------12----|----12-----------12-------12-|

|-----------------------------|-----------------------------|

|-----------------------------|-----------------------------|

|

| Gtr V

| E E E E E E E E E E E E E E E E

|-10-10--10---10--10-10-10-10-|-10-10--10---10--10-10-10-10-|

|-10-10--10---10--10-10-10-10-|-10-10--10---10--10-10-10-10-|

|-----------------------------|-----------------------------|

|-----------------------------|-----------------------------|

|-----------------------------|-----------------------------|

|-----------------------------|-----------------------------|

|

| Gtr IV

| Q +E +E H Q +E +E H

|-10----(10)-(10)s=5----------|-12----(12)-(12)s=5----------|

|-----------------------------|-----------------------------|

|-----------------------------|-----------------------------|

|-----------------------------|-----------------------------|

|-----------------------------|-----------------------------|

|-----------------------------|-----------------------------|

 

 

E E E E E E E E E E E E E E E E

|----------------------------------|-----------------------------|

|----------------------------------|-----------------------------|

|--10p=9-------10p==9-----10p===9--|----10p==9-------10p=9----10-|

|---------12----------12-----------|-12----------12--------12----|

|----------------------------------|-----------------------------|

|----------------------------------|-----------------------------|

|

| E E E E E E E E E E E E E E E E

|-/13-13--13---13--13-13--13---13--|-13-13--13---13--13-13-13-13-|

|-/13-13--13---13--13-13--13---13--|-13-13--13---13--13-13-13-13-|

|----------------------------------|-----------------------------|

|----------------------------------|-----------------------------|

|----------------------------------|-----------------------------|

|----------------------------------|-----------------------------|

|

| Q +E +E Q +E +E Q +E +E Q Q

|--13----(13)-(13)s12----(12)-(12)s|=10----(10)-(10)s=8----12----|

|----------------------------------|-----------------------------|

|----------------------------------|-----------------------------|

|----------------------------------|-----------------------------|

|----------------------------------|-----------------------------|

|----------------------------------|-----------------------------|

 

 

N.C.

E E E E E E E E E E E E E E E E

|-------------------------|---------------------------|

|-------------------------|---------------------------|

|----10p=9----10p=9----10p|===9-----10p=9----10p=9----|

|-12-------12-------12----|------12-------12-------12-|

|-------------------------|---------------------------|

|-------------------------|---------------------------|

|

| E E E E E E E E E E E E E E E E

|-12-12-12-12-12-12-12-12-|--12--12-12-12-12-12-12-12-|

|-13-13-13-13-13-13-13-13-|--13--13-13-13-13-13-13-13-|

|-------------------------|---------------------------|

|-------------------------|---------------------------|

|-------------------------|---------------------------|

|-------------------------|---------------------------|

|

| Gtr IV

| W +W

|-------------------------|---------------------------|

|-10----------------------|-(10)----------------------|

|-------------------------|---------------------------|

|-------------------------|---------------------------|

|-------------------------|---------------------------|

|-------------------------|---------------------------|

 

 

E E E E E E E E W

|--------------------------|-------|

|--------------------------|-------|

|--10p=9----10p=9----10p=9-|-------|

|--------12-------12-------|-12----|

|--------------------------|-------|

|--------------------------|-------|

|

| E E E E E E E E W

|-/13-13-13-13-13-13-13-13-|-12----|

|--13-13-13-13-13-13-13-13-|-13----|

|--------------------------|-------|

|--------------------------|-------|

|--------------------------|-------|

|--------------------------|-------|

|

| W W

|--------------------------|-------|

|--------------------------|-------|

|--------------------------|-------|

|--------------------------|-------|

|--------------------------|-------|

|--------------------------|-------|

 

 

Verse

Gb5 N.C. Gb5 N.C.

Gtr I

PM------------| PM----------------|

Q E S S S S S S S S E +E E E S S S S S S S S S S 3x

||----------------------------|---------------------------------||

||o---------------------------|--------------------------------o||

||--12--12-----------------12-|-(12)-12-12----------------------||

||--11--11-----------------11-|-(11)-11-11----------------------||

||o-10--10-----------------10-|-(10)-10-10---------------------o||

||---------0-0-0-0-0-0-0-0----|------------0-0-0-0-0-0-0-0-0-0--||

 

 

Gb5 N.C. Gb5 D5 Gb5 D5 Gb5

PM------------| PM| PM|

Q E S S S S S S S S E +E E E E +E E E E

|---------------------------|-------------------------|

|---------------------------|-------------------------|

|-12--12-----------------12-|-(12)-----12-(12)-----12-|

|-11--11-----------------11-|-(11)-----11-(11)-----11-|

|-10--10-----------------10-|-(10)-0-0-10-(10)-0-0-10-|

|--------0-0-0-0-0-0-0-0----|------0-0---------0-0----|

 

 

D5 Gb5 D5 Gb5 D5 Gb5

PM| PM| PM|

+E E E E +E E E E +E E E E +H

|-------------------------|---------------------|

|-------------------------|---------------------|

|-(12)-----12-(12)-----12-|-(12)-----12-(12)----|

|-(11)-----11-(11)-----11-|-(11)-----11-(11)----|

|-(10)-0-0-10-(10)-0-0-10-|-(10)-0-0-10-(10)----|

|------0-0---------0-0----|------0-0------------|

 

 

Out-Chorus

D5 Bb5

W +H Q E E W +H E E E E

||-----------|---------------|----------|-----------------|

||o----------|---------------|----------|-----------------|

||-----------|---------------|----------|-----------------|

||--0--------|-(0)----0--0-0-|-8--------|-(8)----8-8-8-8--|

||o-0--------|-(0)----0--0-0-|-8--------|-(8)----8-8-8-8--|

||--0--------|-(0)----0--0-0-|-8--------|-(8)----8-8-8-8--|

 

 

A5 F5 C5

W +H E E E E H. E E W

|----------|----------------|----------------|--------||

|----------|----------------|----------------|-------o||

|----------|----------------|-10-------10-10-|--------||

|-7--------|-(7)----7-7-7-7-|-10-------10-10-|-10-----||

|-7--------|-(7)----7-7-7-7-|--8--------8--8-|-10----o||

|-7--------|-(7)----7-7-7-7-|----------------|-10-----||

 

 

A5 F5 C5

H H H E E E E H Q E E H Q E E

|-----------|--------------|-----------------|-----------------|

|-----------|--------------|-----------------|-----------------|

|-----------|--------------|-10----10--10-10-|-----------------|

|-7----7----|-7----7-7-7-7-|-10----10--10-10-|-10----10--10-10-|

|-7----7----|-7----7-7-7-7-|--8-----8---8--8-|-10----10--10-10-|

|-7----7----|-7----7-7-7-7-|-----------------|-10----10--10-10-|

 

 

Outro

D5

Gtr I

>

PM--------------------|

W +W

|----------------------|--------------------|

|----------------------|--------------------|

|----------------------|--------------------|

|--0-------------------|--(0)---------------|

|--0-------------------|--(0)---------------|

|--0-------------------|--(0)---------------|

|

| Gtr II

| H E E +Q +H E E +Q

|----------------------|--------------------|

|----------------------|--------------------|

|-----------9----------|---------9----------|

|-------------10-(10)--|-(10)------10-(10)--|

|----------------------|--------------------|

|--0-------------------|--------------------|

|

| Gtr III

| <

| Q +H. +W

|-10--(10)-------------|-(10)---------------|

|----------------------|--------------------|

|--7---(7)-------------|--(7)---------------|

|----------------------|--------------------|

|----------------------|--------------------|

|----------------------|--------------------|

 

 

Fmaj7sus4/Bb

W W

|--------------------|-------------------|

|--------------------|-------------------|

|--------------------|-------------------|

|--------------------|-------------------|

|--------------------|-------------------|

|--------------------|-------------------|

|

| E E E E E E E E E E E E E E E E

|--------------------|-------------------|

|--------------------|-------------------|

|-----------9-----10-|---------9-----9---|

|-------------8------|--8--------8-----8-|

|---8-----8-----8----|-----8-------8-----|

|-8----8-------------|-------8-----------|

|

| <

| Q +H. +W

|-5---(5)------------|-(5)---------------|

|--------------------|-------------------|

|-2---(2)------------|-(2)---------------|

|--------------------|-------------------|

|--------------------|-------------------|

|--------------------|-------------------|

 

 

A5

Gtr II

Q Q E E E E E E E E E E E E

|--------------------|--------------------|

|--------------------|--------------------|

|-----------9-----10-|----------9-----9---|

|-------------7------|---7--------7-----7-|

|-------7-------7----|--------7-----------|

|--7-----------------|------7-------7-----|

|

| Gtr III

| <

| Q +H. +W

|-12--(12)-----------|-(12)---------------|

|--------------------|--------------------|

|--9---(9)-----------|--(9)---------------|

|--------------------|--------------------|

|--------------------|--------------------|

|--------------------|--------------------|

 

 

H.=H

F A5

Q Q Q Q Q Q Q Q

|-------------------|-----------------|

|-----------10------|-----------------|

|---------------10--|-----------9-----|

|-------10----------|--------------7--|

|---8---------------|-------7---------|

|-------------------|--7--------------|

|

| <

| +W Q +H.

|-(12)--------------|-13--(13)--------|

|-------------------|-----------------|

|--(9)--------------|-10--(10)--------|

|-------------------|-----------------|

|-------------------|-----------------|

|-------------------|-----------------|

 

 

Q=65

N.C.

W +W +W +W

|-------------|------------|------------|--------*|

|-------------|------------|------------|--------*|

|-------------|------------|------------|--------*|

|-------------|------------|------------|--------*|

|-------------|------------|------------|--------*|

|-0-----------|-(0)--------|-(0)--------|-(0)----*|

|

| < >

| Q +H. +W +W W

|-5--(5)------|-(5)--------|-(5)--------|--------*|

|-------------|------------|------------|--------*|

|-2--(2)------|-(2)--------|-(2)--------|--------*|

|-------------|------------|------------|--------*|

|-------------|------------|------------|--------*|

|-------------|------------|------------|--------*|

 

 

Return to my System of a Down tabs page

The Tablature is Copyright its respective owners.

Sign Up For My Newsletter
Subscribe | Unsubscribe

Site Map | Disclaimer | Privacy Policy | Media Kit | Submissions/Corrections

Website © 2000-2014 mattsmusicpage.com. All rights reserved.

Legal & DMCA: Matt's Music Page has been providing lyrics and tabs in a legal way, paying royalties each year to a few organizations. Then, all lyrics and tabs were removed from the site. Now, there's a new owner to the site, which purchased it August 26, 2014, and he is in negotiation to obtain licensing from BMI at the moment. If you have a specific DMCA request -- please do not hesitate to contact me via the contact button on top. I will do my very best to keep this site fully legal.

Get our toolbar!

 

Hard Rock Pin Las Vegas 4th of july red white and blue guitar
$5.0
Hard Rock Pin Las Vegas 4th of july red white and blue guitar picture


Hard Rock Pin Hollywood Fl Bell Girl with dice luggage and guitar
$5.0
Hard Rock Pin Hollywood Fl Bell Girl with dice luggage and guitar picture


Hard Rock Pin Las Vegas King of Clubs Guitar rare only 3 lines of info on back
$5.0
Hard Rock Pin Las Vegas King of Clubs Guitar rare only 3 lines of info on back picture


Hard Rock Pin Edmonton guitar pin
$5.0
Hard Rock Pin Edmonton guitar pin picture


Lladro Guitar Boy #4614 - Beautiful Piece of Lladro
$109.0
Lladro Guitar Boy #4614 - Beautiful Piece of Lladro picture