Your One-Stop Source For
Music Lyrics
Bass and Guitar Tabs
and More...
Music Lyrics Bass and Guitar Tabs

 

The Tabs Are Below

Learn To Read Tab
Chords Handbook
Corrections & Additions
Get Official Tab
SOAD tabs @ 911Tabs

/ System of a Down / I think this little song is about how senseless and unfair the

/ Soldier Side / American attitude and view on going into war is told by a fictional

/ Mezmerize / soldier standing in the middle of the battlefield with his

/___________________/ companions lying and dying around him - "People grow up to die!"

 

Guitar: Clean

Rhythm: 4 / 4

Tempo: 66 bpm

Tuning: Db Ab Db Gb Bb Eb

C# G# C# F# A# D#

 

 

 

INTRO:

E D# F#m C#m D# G#

|-3-|

E E S S E E E E E E S S a E E E E E E E E E E E E E E E E E E E S S a E E E

|--------------------|-----------------------|-----------------|---------------------|

|--------------------|-----------------------|-----------------|-----2---2-3-3/5-5---|

|-2---2-3-2-1---1----|---3-5-5s7s5-3-2---2---|-1---1-------1---|---------------------|

|-0---------0--------|-----------------------|-0-------2-------|---2---2-------------|

|-0---------2--------|-----------------------|-2---------------|-0-------------------|

|-3-3-------2-2---2/-|-5---------------0---0-|-2-2---2---2---2-|-------------------0-|

 

 

 

VERSE:

 

Q E E Q E E Q E E Q E E Q E E E E E E E E E E S S a E E E

|-------------|--------------|---------------|---------------------|

|-------------|--------------|---------------|-----2---2-3-3/5-5---|

|---2-----1---|---3------2---|---1-------1---|---------------------|

|-------------|------------0-|-------2-------|---2---2-------------|

|-------------|--------------|---------------|-0-------------------|

|-3---3-2---2-|-5---5\-0-----|-2---2---2---2-|-------------------0-|

 

E D# F#m C#m D# G#

Welcome to the soldier side - where there's no one here but me

 

 

 

Q E E Q E E Q E E Q E S S Q E E E E E E E E E E S S a E E E

|-------------|----------------|---------------|---------------------|

|-------------|----------------|---------------|-----2---2-3-3/5-5---|

|---2-----1---|---3------2-----|---1-------1---|---------------------|

|-------------|------------0---|-------2-------|---2---2-------------|

|-------------|----------------|---------------|-0-------------------|

|-3---3-2---2-|-5---5\-0-----0-|-2---2---2---2-|-------------------0-|

 

E D# F#m C#m D# G#

People all grow up to die - there is no one here but me

 

 

 

OUTRO:

E D# F#m C#m D# G#

|--3--|

E E S S E E E E S S E S S a E E E E E E E E E E E E E E E E E E E H

|--------------------------|--------------------------------|-----------------|--------------|

|-10---10-11-10-9---9------|----11s13-13s15-13-11-10---10---|-9---9-------9---|---------10---|

|--x------------x----------|----12s14-14s15-14-12-----------|-9-------9-------|-----9--------|

|--x------------x----------|--------------------------------|-x---------------|---7---7------|

|--8-8----------7-7---7/10-|-10----------------------8----8-|-7-7---7---7---7-|--------------|

|--------------------------|--------------------------------|-----------------|-7------------|

 

 

 

 

- 20th /August /05

Just mail me at Maitinin@gmail.com with questions, comments or corrections!

 

Return to my System of a Down tabs page

The Tablature is Copyright its respective owners.

Sign Up For My Newsletter
Subscribe | Unsubscribe

Site Map | Disclaimer | Privacy Policy | Media Kit | Submissions/Corrections

Website © 2000-2014 mattsmusicpage.com. All rights reserved.

Legal & DMCA: Matt's Music Page has been providing lyrics and tabs in a legal way, paying royalties each year to a few organizations. Then, all lyrics and tabs were removed from the site. Now, there's a new owner to the site, which purchased it August 26, 2014, and he is in negotiation to obtain licensing from BMI at the moment. If you have a specific DMCA request -- please do not hesitate to contact me via the contact button on top. I will do my very best to keep this site fully legal.

Get our toolbar!

 

Starbucks You Are Here Coffee Mug/Cup KENTUCKY - Horses, Banjo, Blue, White
$19.99
Starbucks You Are Here Coffee Mug/Cup KENTUCKY - Horses, Banjo, Blue, White picture


KNOWLES ROCKWELL HERITAGE "THE BANJO PLAYER" FIRST EDITION 1989 PLATE COA
$5.99
KNOWLES ROCKWELL HERITAGE


Vintage Postcard 1981 Disney World Banjo Kings Main Street USA 1981 Postmark
$4.99
 Vintage Postcard 1981 Disney World Banjo Kings Main Street USA 1981 Postmark picture


Banjo Barometer With Thermometer Hygrometer 490mm
$84.76
Banjo Barometer With Thermometer Hygrometer 490mm picture


ANTIQUE JAPANESE NIPPON FIGURINE SET OF 3 WOMEN GEISHA PLAYING DRUM BANJO FAN
$24.0
ANTIQUE JAPANESE NIPPON FIGURINE SET OF 3 WOMEN GEISHA PLAYING DRUM BANJO FAN picture