Your One-Stop Source For
Music Lyrics
Bass and Guitar Tabs
and More...
>Music Lyrics Bass and Guitar Tabs

 

The Tabs Are Below

Learn To Read Tab
Chords Handbook
Corrections & Additions
Get Official Tab
SOAD tabs @ 911Tabs

___________________

/ System of a Down / I think this little song is about how senseless and unfair the

/ Soldier Side / American attitude and view on going into war is told by a fictional

/ Mezmerize / soldier standing in the middle of the battlefield with his

/__________________/ companions lying and dying around him - "People grow up to die!"

 

Guitar: Clean

Rhythm: 4/4

Tempo: 66 bpm

Tuning: Db Ab Db Gb Bb Eb

C# G# C# F# A# D#

 

 

 

INTRO:

E D# F#m C#m D# G#

|-3-|

E E S S E E E E E E S S a E E E E E E E E E E E E E E E E E E E S S a E E E

|--------------------|-----------------------|-----------------|---------------------|

|--------------------|-----------------------|-----------------|-----2---2-3-3/5-5---|

|-2---2-3-2-1---1----|---3-5-5s7s5-3-2---2---|-1---1-------1---|---------------------|

|-0---------0--------|-----------------------|-0-------2-------|---2---2-------------|

|-0---------2--------|-----------------------|-2---------------|-0-------------------|

|-3-3-------2-2---2/-|-5---------------0---0-|-2-2---2---2---2-|-------------------0-|

 

 

 

VERSE:

 

Q E E Q E E Q E E Q E E Q E E E E E E E E E E S S a E E E

|-------------|--------------|---------------|---------------------|

|-------------|--------------|---------------|-----2---2-3-3/5-5---|

|---2-----1---|---3------2---|---1-------1---|---------------------|

|-------------|------------0-|-------2-------|---2---2-------------|

|-------------|--------------|---------------|-0-------------------|

|-3---3-2---2-|-5---5\-0-----|-2---2---2---2-|-------------------0-|

 

E D# F#m C#m D# G#

Welcome to the soldier side - where there's no one here but me

 

 

 

Q E E Q E E Q E E Q E S S Q E E E E E E E E E E S S a E E E

|-------------|----------------|---------------|---------------------|

|-------------|----------------|---------------|-----2---2-3-3/5-5---|

|---2-----1---|---3------2-----|---1-------1---|---------------------|

|-------------|------------0---|-------2-------|---2---2-------------|

|-------------|----------------|---------------|-0-------------------|

|-3---3-2---2-|-5---5\-0-----0-|-2---2---2---2-|-------------------0-|

 

E D# F#m C#m D# G#

People all grow up to die - there is no one here but me

 

 

 

OUTRO:

E D# F#m C#m D# G#

|--3--|

E E S S E E E E S S E S S a E E E E E E E E E E E E E E E E E E E H

|--------------------------|--------------------------------|-----------------|--------------|

|-10---10-11-10-9---9------|----11s13-13s15s13s11-10---10---|-9---9-------9---|---------10---|

|--x------------x----------|----12s14-14s15s14s12-----------|-9-------9-------|-----9--------|

|--x------------x----------|--------------------------------|-x---------------|---7---7------|

|--8-8----------7-7---7/10-|-10----------------------8----8-|-7-7---7---7---7-|--------------|

|--------------------------|--------------------------------|-----------------|-7------------|

 

 

 

- 20th /August /05

Just mail me at Maitinin@gmail.com with questions, comments and corrections!

 

 

 

**********************************************************************************************

____________________

/ System of a Down / Again this is about soldiers in war. How their mothers cried

/ Soldier Side / when they left their homes, how they’re asking themselves

/ Hypnotize / existential questions on the battlefield, how even God lost

/___________________/ his faith in them and how unfair wars are for everybody.

 

Tuning: Db Ab Db Gb Bb Eb

C# G# C# F# A# D#

 

Gtr I - Clean (lead, solo)

Gtr II - Overdriven (lead)

Gtr III - Clean (tremolo, left speaker)

Gtr IV - Clean (tremolo, right speaker)

Gtr V - Clean (solo)

Gtr VI - Distorted (backup in Chorus)

 

 

 

Intro

Q=75 bpm

4/4

Gtr I

Gbm Dbm

S S S S S S S S S S S S S S S S S S S S S S S S S S S S S S S S

|-----------------------------------------|-----------------------------------------|

|-----------------------------------------|-----------------------------------------|

|------12--------12--------12--------12---|------10--------10--------10--------10---|

|----0----0----0----0----0----0----0----0-|----0----0----0----0----0----0----0----0-|

|-13--------13--------13--------13--------|-12--------12--------12--------12--------|

|-----------------------------------------|-----------------------------------------|

|-Melancholy Riff

 

 

Dbsus2 Dbm

S S S S S S S S S S S S S S S S S S S S S S S S S S S S S S S S

|-------------------------------------|-----------------------------------------|

|-------------------------------------|-----------------------------------------|

|------9--------9--------9--------9---|------10--------10--------10--------10---|

|----0---0----0---0----0---0----0---0-|----0----0----0----0----0----0----0----0-|

|-12-------12-------12-------12-------|-12--------12--------12--------12--------|

|-------------------------------------|-----------------------------------------|

end Melancholy Riff-|

 

 

Gbm Dbm

S S S S S S S S S S S S S S S S S S S S S S S S S S S S S S S S

|------------------------------------------|------------------------------------------|

|------------------------------------------|------------------------------------------|

|------12------15--------15------14---12---|------10------12--------12------10--------|

|----0----0-------0----0----0-------0----0-|----0----0-------0----0----0-------0----0-|

|-13--------13------13--------13-----------|-12--------12------12--------12------12---|

|------------------------------------------|------------------------------------------|

 

 

Dbsus2 Dbm

S S S S S S S S S S S S S S S S S S S S S S S S S S S S S S S S

|-------------------------------------|-----------------------------------------|

|-------------------------------------|-----------------------------------------|

|------9--------9--------9--------9---|------10--------10--------10--------10---|

|----0---0----0---0----0---0----0---0-|----0----0----0----0----0----0----0----0-|

|-12-------12-------12-------12-------|-12--------12--------12--------12--------|

|-------------------------------------|-----------------------------------------|

 

 

 

 

1st Verse

Gtr II

Gb5 E5 Eb5 Db5 A5 B5

H. E E H. E E

||------------------------|-------------------------||

||o-----------------------|------------------------o||

||------------------------|-2-----------------------||

||--5-------------3---2---|-0-------------8---10----||

||o-5-------------3---2---|-0-------------8---10---o||

||--5-------------3---2---|-0-------------8---10----||

...dead men lying on the bottom of the grave...

 

 

 

Gtr II

F#m7 E B

T T T T T T T T T T T T T T T T T T T T T T T T T T T T T T T T

||------------------------------------------------------------------|

||o-----------------------------------------------------------------|

||------------------------------------------------------------------|

||------------------------------------------------------------------|

||o-------------------------------------------------8-8-8-8-7-7-7-7-|

||--8-8-8-8-8-8-8-8-8-8-8-8-8-8-8-8-8-8-8-8-8-8-8-8-----------------|

|

|Gtr III

| T T T T T T T T T T T T T T T T T T T T T T T T T T T T T T T T

||--13-13-13-13-13-13-13-13-13-13-13-13-13-13-13-13-13-13-13-13-13-13-13-13-17-17-17-17-15-15-15-15-|

||o-15-15-15-15-15-15-15-15-15-15-15-15-15-15-15-15-15-15-15-15-15-15-15-15-18-18-18-18-17-17-17-17-|

||--------------------------------------------------------------------------------------------------|

||--------------------------------------------------------------------------------------------------|

||o-------------------------------------------------------------------------------------------------|

||--------------------------------------------------------------------------------------------------|

|

|Gtr IV

| T T T T T T T T T T T T T T T T T T T T T T T T T T T T T T T T

||--------------------------------------------------------------------------------------------------|

||o-11-11-11-11-11-11-11-11-11-11-11-11-11-11-11-11-11-11-11-11-11-11-11-11-18-18-18-18-17-17-17-17-|

||--12-12-12-12-12-12-12-12-12-12-12-12-12-12-12-12-12-12-12-12-12-12-12-12-17-17-17-17-17-17-17-17-|

||--------------------------------------------------------------------------------------------------|

||o-------------------------------------------------------------------------------------------------|

||--------------------------------------------------------------------------------------------------|

 

 

Gtr II

Db5

T T T T T T T T T T T T T T T T T T T T T T T T T T T T T T T T

|------------------------------------------------------------------||

|-----------------------------------------------------------------o||

|------------------------------------------------------------------||

|------------------------------------------------------------------||

|-----------------------------------------------------------------o||

|-0-0-0-0-0-0-0-0-0-0-0-0-0-0-0-0-0-0-0-0-0-0-0-0-0-0-0-0-0-0-0-0--||

|

|Gtr III, IV

| T T T T T T T T T T T T T T T T T T T T T T T T T T T T T T T T

|--------------------------------------------------------------------------------------------------||

|-15-15-15-15-15-15-15-15-15-15-15-15-15-15-15-15-15-15-15-15-15-15-15-15-15-15-15-15-15-15-15-15-o||

|-14-14-14-14-14-14-14-14-14-14-14-14-14-14-14-14-14-14-14-14-14-14-14-14-14-14-14-14-14-14-14-14--||

|--------------------------------------------------------------------------------------------------||

|-------------------------------------------------------------------------------------------------o||

|--------------------------------------------------------------------------------------------------||

 

 

 

 

Bridge

w/Melancholy Riff x2

Gtr III, IV (Gtr III plays the e-string notes)

T T T T T T T T T T T T T T T T T T T T T T T T T T T T T T T T

||--18-18-18-18-18-18-18-18-18-18-18-18-18-18-18-18-18-18-18-18-18-18-18-18-18-18-18-18-18-18-18-18-|

||o-20-20-20-20-20-20-20-20-20-20-20-20-20-20-20-20-20-20-20-20-20-20-20-20-20-20-20-20-20-20-20-20-|

||--------------------------------------------------------------------------------------------------|

||--------------------------------------------------------------------------------------------------|

||o-------------------------------------------------------------------------------------------------|

||--------------------------------------------------------------------------------------------------|

...they were crying when their sons left...

 

 

T T T T T T T T T T T T T T T T T T T T T T T T T T T T T T T T

|-17-17-17-17-17-17-17-17-17-17-17-17-17-17-17-17-17-17-17-17-17-17-17-17-17-17-17-17-17-17-17-17-|

|-18-18-18-18-18-18-18-18-18-18-18-18-18-18-18-18-18-18-18-18-18-18-18-18-18-18-18-18-18-18-18-18-|

|-------------------------------------------------------------------------------------------------|

|-------------------------------------------------------------------------------------------------|

|-------------------------------------------------------------------------------------------------|

|-------------------------------------------------------------------------------------------------|

 

 

T T T T T T T T T T T T T T T T T T T T T T T T T T T T T T T T

|-15-15-15-15-15-15-15-15-15-15-15-15-15-15-15-15-15-15-15-15-15-15-15-15-15-15-15-15-15-15-15-15-|

|-17-17-17-17-17-17-17-17-17-17-17-17-17-17-17-17-17-17-17-17-17-17-17-17-17-17-17-17-17-17-17-17-|

|-------------------------------------------------------------------------------------------------|

|-------------------------------------------------------------------------------------------------|

|-------------------------------------------------------------------------------------------------|

|-------------------------------------------------------------------------------------------------|

 

 

T T T T T T T T T T T T T T T T T T T T T T T T T T T T T T T T

|-17-17-17-17-17-17-17-17-17-17-17-17-17-17-17-17-17-17-17-17-17-17-17-17-17-17-17-17-17-17-17-17--||

|-18-18-18-18-18-18-18-18-18-18-18-18-18-18-18-18-18-18-18-18-18-18-18-18-18-18-18-18-18-18-18-18-o||

|--------------------------------------------------------------------------------------------------||

|--------------------------------------------------------------------------------------------------||

|-------------------------------------------------------------------------------------------------o||

|--------------------------------------------------------------------------------------------------||

 

 

 

 

2nd Verse

similar to 1st Verse

 

 

 

 

Bridge

similar to previous

 

 

 

 

Solo

Gtr II

Gb5 E5 Eb5 Db5 Ab5 Db5 Eb5 E5 Eb5

Q Q Q E E Q Q Q Q Q Q Q Q Q Q Q Q

|-------------------|-----------------|-----------------|-----------------|

|-------------------|-----------------|-----------------|-----------------|

|-------------------|-----------------|-----------------|-----------------|

|-5---5---5---3--2--|-0---0---0---0---|-7---7---7---7---|-0---2---3---2---|

|-5---5---5---3--2--|-0---0---0---0---|-7---7---7---7---|-0---2---3---2---|

|-5---5---5---3--2--|-0---0---0---0---|-7---7---7---7---|-0---2---3---2---|

|-Solo Backup Riff end Solo Backup Riff-|

 

 

Gtr I

T T T T T T T T T T T T T T T T T T T T T T T T T T T T T T T T

|-------------------------------------------------------------------------------------------------|

|-------------------------------------------------------------------------------------------------|

|-12-12-12-12-12-12-12-12-12-12-12-12-10-10-12-12-14-14-14-14-12-12-10-10-12-12-12-12-10-10-12-12-|

|-------------------------------------------------------------------------------------------------|

|-------------------------------------------------------------------------------------------------|

|-------------------------------------------------------------------------------------------------|

|-Guitar Solo

|

|Gtr V

| T T T T T T T T T T T T T T T T T T T T T T T T T T T T T T T T

|-------------------------------------------------------------------------------------------------|

|-11-11-11-11-11-11-11-11-11-11-11-11-10-10-11-11-13-13-13-13-11-11-10-10-11-11-11-11-10-10-11-11-|

|-------------------------------------------------------------------------------------------------|

|-------------------------------------------------------------------------------------------------|

|-------------------------------------------------------------------------------------------------|

|-------------------------------------------------------------------------------------------------|

|-Guitar Solo

 

 

T T T T T T T T T T T T T T T T T T T T T T T T T T T T T T T T

|-----------------------------------------------------------------------------------------------|

|-----------------------------------------------------------------------------------------------|

|-10-10-10-10-------------------------10-10-12-12-10-10-10-10-------------------------9-9-10-10-|

|-------------12-12-12-12-12-12-12-12-------------------------12-12-12-12-12-12-12-12-----------|

|-----------------------------------------------------------------------------------------------|

|-----------------------------------------------------------------------------------------------|

|

| T T T T T T T T T T T T T T T T T T T T T T T T T T T T T T T T

|-----------------------------------------------------------------------------------------------|

|-10-10-10-10-------------------------10-10-11-11-10-10-10-10-------------------------8-8-10-10-|

|-------------10-10-10-10-10-10-10-10-------------------------10-10-10-10-10-10-10-10-----------|

|-----------------------------------------------------------------------------------------------|

|-----------------------------------------------------------------------------------------------|

|-----------------------------------------------------------------------------------------------|

 

 

T T T T T T T T T T T T T T T T T T T T T T T T T T T T T T T T

|-------------------------------------------------------------------------------------|

|-------------------------------------------------------------------------------------|

|-9-9-9-9-------------------------9-9-10-10-9-9-9-9-----------------------------------|

|---------11-11-11-11-11-11-11-11-------------------11-11-11-11-12-12-11-11-9-9-11-11-|

|-------------------------------------------------------------------------------------|

|-------------------------------------------------------------------------------------|

|

| T T T T T T T T T T T T T T T T T T T T T T T T T T T T T T T T

|-------------------------------------------------------------------------------------|

|-8-8-8-8-------------------------8-8-10-10-8-8-8-8-----------------------------------|

|-------------------------------------------------------------------------------------|

|---------11-11-11-11-11-11-11-11-------------------11-11-11-11-12-12-11-11-9-9-11-11-|

|-------------------------------------------------------------------------------------|

|-------------------------------------------------------------------------------------|

 

 

Gtr I, V

T T T T T T T T T T T T T T T T T T T T T T T T T T T T T T T T

|-----------------------------------------------------------------------------------------|

|-----------------------------------------------------------------------------------------|

|-------------------------9-9-9-9-9-9-9-9-10-10-10-10-10-10-10-10-12-12-12-12-12-12-12-12-|

|-12-12-12-12-12-12-12-12-----------------------------------------------------------------|

|-----------------------------------------------------------------------------------------|

|-----------------------------------------------------------------------------------------|

end Guitar Solo-|

 

 

 

w/Solo Backup Riff + Guitar Solo

Gtr III

T T T T T T T T T T T T T T T T T T T T T T T T T T T T T T T T

|-13-13-13-13-13-13-13-13-13-13-13-13-12-12-13-13-17-17-17-17-17-17-17-17-15-15-15-15-13-13-15-15-|

|-------------------------------------------------------------------------------------------------|

|-------------------------------------------------------------------------------------------------|

|-------------------------------------------------------------------------------------------------|

|-------------------------------------------------------------------------------------------------|

|-------------------------------------------------------------------------------------------------|

|

|Gtr IV

| T T T T T T T T T T T T T T T T T T T T T T T T T T T T T T T T

|-------------------------------------------------17-17-17-17-20-20-20-20-20-20-20-20-17-17-18-18-|

|-15-15-15-15-15-15-15-15-15-15-15-15-15-15-15-15-------------------------------------------------|

|-------------------------------------------------------------------------------------------------|

|-------------------------------------------------------------------------------------------------|

|-------------------------------------------------------------------------------------------------|

|-------------------------------------------------------------------------------------------------|

 

 

T T T T T T T T T T T T T T T T T T T T T T T T T T T T T T T T

|-13-13-13-13-------------------------13-13-15-15-13-13-13-13-------------------------12-12-13-13-|

|-------------15-15-15-15-15-15-15-15-------------------------15-15-15-15-15-15-15-15-------------|

|-------------------------------------------------------------------------------------------------|

|-------------------------------------------------------------------------------------------------|

|-------------------------------------------------------------------------------------------------|

|-------------------------------------------------------------------------------------------------|

|

| T T T T T T T T T T T T T T T T T T T T T T T T T T T T T T T T

|-17-17-17-17-13-13-13-13-13-13-13-13-17-17-18-18-17-17-17-17-13-13-13-13-13-13-13-13-13-13-13-13-|

|-------------------------------------------------------------------------------------------------|

|-------------------------------------------------------------------------------------------------|

|-------------------------------------------------------------------------------------------------|

|-------------------------------------------------------------------------------------------------|

|-------------------------------------------------------------------------------------------------|

 

 

T T T T T T T T T T T T T T T T T T T T T T T T T T T T T T T T

|-12-12-12-12-12-12-12-12-12-12-12-12-12-12-12-12-13-13-13-13-13-13-13-13-15-15-15-15-15-15-15-15-|

|-------------------------------------------------------------------------------------------------|

|-------------------------------------------------------------------------------------------------|

|-------------------------------------------------------------------------------------------------|

|-------------------------------------------------------------------------------------------------|

|-------------------------------------------------------------------------------------------------|

|

| T T T T T T T T T T T T T T T T T T T T T T T T T T T T T T T T

|-------------------------------------------------------------------------------------------------|

|-14-14-14-14-14-14-14-14-14-14-14-14-14-14-14-14-15-15-15-15-15-15-15-15-17-17-17-17-17-17-17-17-|

|-------------------------------------------------------------------------------------------------|

|-------------------------------------------------------------------------------------------------|

|-------------------------------------------------------------------------------------------------|

|-------------------------------------------------------------------------------------------------|

 

 

T T T T T T T T T T T T T T T T T T T T T T T T T T T T T T T T

|-13-13-13-13-13-13-13-13-15-15-15-15-15-15-15-15-17-17-17-17-17-17-17-17-15-15-15-15-15-15-15-15-|

|-------------------------------------------------------------------------------------------------|

|-------------------------------------------------------------------------------------------------|

|-------------------------------------------------------------------------------------------------|

|-------------------------------------------------------------------------------------------------|

|-------------------------------------------------------------------------------------------------|

|

| T T T T T T T T T T T T T T T T T T T T T T T T T T T T T T T T

|-------------------------------------------------------------------------------------------------|

|-15-15-15-15-15-15-15-15-17-17-17-17-17-17-17-17-18-18-18-18-18-18-18-18-17-17-17-17-17-17-17-17-|

|-------------------------------------------------------------------------------------------------|

|-------------------------------------------------------------------------------------------------|

|-------------------------------------------------------------------------------------------------|

|-------------------------------------------------------------------------------------------------|

 

 

 

 

Chorus

Gtr II, VI

E5 Eb5 Gb5 Db5 Eb5 Ab5

Q Q Q Q Q Q Q Q Q Q Q Q Q Q Q Q

|-----------------|-----------------|--------------------|------------------|

|-----------------|-----------------|--------------------|------------------|

|-----------------|-----------------|--------------------|------------------|

|-3---3---2---2---|-5---5---0---0---|-2---2----2----2----|--7---7---7---7---|

|-3---3---2---2---|-5---5---0---0---|-2---2----2----2----|--7---7---7---7---|

|-3---3---2---2---|-5---5---0---0---|-2---2----2----2----|--7---7---7---7---|

|-Chorus Riff end Chorus Riff-|

|

|Gtr IV

| W W H E E E E H

|-----------------|-----------------|--------17-15----15-|------------------|

|-----------------|-----------------|--------------18----|-17---------------|

|-----------------|-----------------|--------------------|------------------|

|-----------------|-----------------|--------------------|------------------|

|-----------------|-----------------|--------------------|------------------|

|-----------------|-----------------|--------------------|------------------|

...welcome to the soldier side...

 

 

 

w/Chorus Riff x3

Gtr III, IV (both guitars play this)

T T T T T T T T T T T T T T T T T T T T T T T T T T T T T T T T

||--17-17-17-17-17-17-17-17-17-17-17-17-17-17-17-17-16-16-16-16-16-16-16-16-16-16-16-16-16-16-16-16-|

||o-18-18-18-18-18-18-18-18-18-18-18-18-18-18-18-18-17-17-17-17-17-17-17-17-17-17-17-17-17-17-17-17-|

||--------------------------------------------------------------------------------------------------|

||--------------------------------------------------------------------------------------------------|

||o-------------------------------------------------------------------------------------------------|

||--------------------------------------------------------------------------------------------------|

 

 

T T T T T T T T T T T T T T T T T T T T T T T T T T T T T T T T

|-18-18-18-18-18-18-18-18-18-18-18-18-18-18-18-18-17-17-17-17-17-17-17-17-17-17-17-17-17-17-17-17-|

|-20-20-20-20-20-20-20-20-20-20-20-20-20-20-20-20-18-18-18-18-18-18-18-18-18-18-18-18-18-18-18-18-|

|-------------------------------------------------------------------------------------------------|

|-------------------------------------------------------------------------------------------------|

|-------------------------------------------------------------------------------------------------|

|-------------------------------------------------------------------------------------------------|

 

 

Gtr III

T T T T T T T T T T T T T T T T T T T T T T T T T T T T T T T T

|-16-16-16-16-16-16-16-16-16-16-16-16-16-16-16-16-16-16-16-16-16-16-16-16-16-16-16-16-16-16-16-16-|

|-17-17-17-17-17-17-17-17-17-17-17-17-17-17-17-17-17-17-17-17-17-17-17-17-17-17-17-17-17-17-17-17-|

|-------------------------------------------------------------------------------------------------|

|-------------------------------------------------------------------------------------------------|

|-------------------------------------------------------------------------------------------------|

|-------------------------------------------------------------------------------------------------|

|

|Gtr IV

| T T T T T T T T T T T T T T T T E E E E

|-16-16-16-16-16-16-16-16-16-16-16-16-16-16-16-16-17----------15----------------------15----------|

|-17-17-17-17-17-17-17-17-17-17-17-17-17-17-17-17-------------------------18----------------------|

|-------------------------------------------------------------------------------------------------|

|-------------------------------------------------------------------------------------------------|

|-------------------------------------------------------------------------------------------------|

|-------------------------------------------------------------------------------------------------|

 

 

T T T T T T T T T T T T T T T T T T T T T T T T T T T T T T T T 3x

|-17-17-17-17-17-17-17-17-17-17-17-17-17-17-17-17-17-17-17-17-17-17-17-17-17-17-17-17-17-17-17-17--||

|-17-17-17-17-17-17-17-17-17-17-17-17-17-17-17-17-17-17-17-17-17-17-17-17-17-17-17-17-17-17-17-17-o||

|--------------------------------------------------------------------------------------------------||

|--------------------------------------------------------------------------------------------------||

|-------------------------------------------------------------------------------------------------o||

|--------------------------------------------------------------------------------------------------||

|

| T T T T T T T T T T T T T T T T T T T T T T T T T T T T T T T T 3x

|--------------------------------------------------------------------------------------------------||

|-17-17-17-17-17-17-17-17-17-17-17-17-17-17-17-17-17-17-17-17-17-17-17-17-17-17-17-17-17-17-17-17-o||

|-18-18-18-18-18-18-18-18-18-18-18-18-18-18-18-18-18-18-18-18-18-18-18-18-18-18-18-18-18-18-18-18--||

|--------------------------------------------------------------------------------------------------||

|-------------------------------------------------------------------------------------------------o||

|--------------------------------------------------------------------------------------------------||

 

 

 

 

Outro

Gtr I

|--3--|

a a a E E S S E a a a E E E S S E S S a E E E E E E E

|--------------------------------------------------|------------------------------------------|

|-------10-------10-11-10---------9-------9--------|------11s13-13s15s13s11-10-------10-------|

|-----x-------------------------x------------------|------12s14-14s15s14s12-------------------|

|---x-------------------------x--------------------|------------------------------------------|

|-8----------8--------------7---------7-------7s10-|-10--------------------------8--------8---|

|--------------------------------------------------|------------------------------------------|

 

 

(slow down here)

a a a E E E E E E E E E E E E H

|---------------------------------------|----------------------------------|

|-------9-------9---------------9-------|-----------------10---------------|

|-----9-----------------9---------------|---------9------------------------|

|---x-----------------------------------|-----7-------7--------------------|

|-7---------7-------7-------7-------7---|-7--------------------------------|

|---------------------------------------|-7--------------------------------|

 

 

Dead men lying on the bottom of their grave

Wondering when Savior comes - is he gonna be saved?

 

Maybe you're a sinner into your alternate life

Maybe you're a joker, maybe you deserve to die

 

They were crying when their sons left

God is wearing black

He's gone so far to find no hope

He's never coming back

 

They were crying when their sons left

All young men must go

He's come so far to find the truth

He's never going home

 

Young men standing on the top of their own graves

Wondering when Jesus comes - are they gonna be saved?

 

Cruelty to the winner, bishop tells the king his lies

Maybe you're a mourner, maybe you deserve to die

 

Welcome to the Soldier Side

Where there's no one here but me

People all grow up to die

There's no one here but me

 

 

- 19th /March /06

Just mail me at Maitinin@gmail.com with questions, comments and corrections!

Return to my System of a Down tabs page

The Tablature is Copyright its respective owners.

Sign Up For My Newsletter
Subscribe | Unsubscribe

Site Map | Disclaimer | Privacy Policy | Media Kit | Submissions/Corrections

Website © 2000-2014 mattsmusicpage.com. All rights reserved.

Legal & DMCA: Matt's Music Page has been providing lyrics and tabs in a legal way, paying royalties each year to a few organizations. Then, all lyrics and tabs were removed from the site. Now, there's a new owner to the site, which purchased it August 26, 2014, and he is in negotiation to obtain licensing from BMI at the moment. If you have a specific DMCA request -- please do not hesitate to contact me via the contact button on top. I will do my very best to keep this site fully legal.

Get our toolbar!

 

1939 LYRIC THEATRE New York PHOTO
$5.83
1939 LYRIC THEATRE New York PHOTO picture


Star Spangled Banner or Marines Hymn lyrics signed by WWII Charles W. Lindberg
$10.0
Star Spangled Banner or Marines Hymn lyrics signed by WWII Charles W. Lindberg picture


OLD LARGE HISTORIC PHOTO OF THE LYRIC THEATRE, SYDNEY c1930s, WAR BONDS BOOTH
$7.42
OLD LARGE HISTORIC PHOTO OF THE LYRIC THEATRE, SYDNEY c1930s, WAR BONDS BOOTH picture


SONG OF REVOLUTION CARD SET WITH 13 MOST FAVORED COMMUNIST SONGS LYRICS + NOTES
$24.99
SONG OF REVOLUTION CARD SET WITH 13 MOST FAVORED COMMUNIST SONGS LYRICS + NOTES picture


OLD LARGE HISTORIC PHOTO OF THE LYRIC THEATRE, SYDNEY c1930s, WAR LOANS BOOTH
$7.42
OLD LARGE HISTORIC PHOTO OF THE LYRIC THEATRE, SYDNEY c1930s, WAR LOANS BOOTH picture