Your One-Stop Source For
Music Lyrics
Bass and Guitar Tabs
and More...
Music Lyrics Bass and Guitar Tabs

 

The Tabs Are Below

Learn To Read Tab
Chords Handbook
Corrections & Additions
Get Official Tab
SOAD tabs @ 911Tabs

________________________

/ System of a Down / This song is about a weird experience Daron, a big

/ Old School Hollywood / baseball fan, once had as he was playing the 45th

/ Mezmerize / Annual Hollywood Stars Baseball Game at Dodgers Stadium.

/_______________________/ As it was only a show off match, Daron didn't take it

rather serious, though the others did. It's about the

feeling of misplacement he had. I think it's a funny story.

 

 

 

Tuning: Db Ab Db Gb Bb Eb

C# G# C# F# A# D#

Gtr I - Electric, Clean w/ some phaser-flanger-wah-wah effect

Gtr II, III - Electric, Distorted

 

 

Intro

Q=160 bpm

4/4

Bass part arranged for Gtr I

a E Q. +H E Q. +H E Q. +H E Q. +H

|----------------------|-------------------|-------------------|-------------------|

|----------------------|-------------------|-------------------|-------------------|

|----------------------|-------------------|-------------------|-------------------|

|-5\-------------------|-------------------|-------------------|-------------------|

|----------------------|-------------------|-------------------|-------------------|

|----1s5-----(5)-------|-1s5-----(5)-------|-1s5-----(5)-------|-1s5-----(5)-------|

 

 

 

Gtr I

E E E E E E E E 8x

||-----------------------------------||

||o---------------------------------o||

||-----------------------------------|| Gtr II produces some lovely

||--0---5---7---5---8---5---7---5----|| pick scrape on last repeat

||o---------------------------------o||

||-----------------------------------||

|-Rhy Fig 1 end Rhy Fig 1-|

 

 

 

w/Rhy Fig 1 x8

Gtr II, III

PM--------------------------|

E E E E E E E E 4x E E E E E E E E 4x

||-----------------------------------||-----------------------------------||

||o---------------------------------o||o---------------------------------o||

||-----------------------------------||-----------------------------------||

||--0---5---7---5---8---5---7---5----||--0---5---7---5---8---5---7---5----||

||o-0---5---7---5---8---5---7---5---o||o-0---5---7---5---8---5---7---5---o||

||--0---5---7---5---8---5---7---5----||--0---5---7---5---8---5---7---5----||

 

 

 

 

1st Verse

Gtr I

W +W

||----------------------------------|-----------------------------------|

||o---------------------------------|-----------------------------------|

||--5-------------------------------|-(5)-------------------------------|

||----------------------------------|-----------------------------------|

||o---------------------------------|-----------------------------------|

||----------------------------------|-----------------------------------|

|

|Gtr II

| PM--------------------------------------------------------------|

| E E E E E E E E E E E E E E E E

||----------------------------------|-----------------------------------|

||o---------------------------------|-----------------------------------|

||--0---5---7---5---8---5---7---5---|--0----5---7---5---8---5---7---5---|

||----------------------------------|-----------------------------------|

||o---------------------------------|-----------------------------------|

||----------------------------------|-----------------------------------|

|-Rhy Fig 2 end Rhy Fig 2-|

 

 

 

w/Rhy Fig 1 2x

PM------------------------------------------------------------|

E E E E E E E E E E E E E E E E

|---------------------------------|----------------------------------||

|---------------------------------|---------------------------------o||

|---------------------------------|----------------------------------||

|-0---5---7---5---8---5---7---5---|-0---5---7---5---8---5---7---5----||

|---------------------------------|---------------------------------o||

|---------------------------------|----------------------------------||

|-Rhy Fig 3 end Rhy Fig 3-|

 

 

 

Pre-Chorus

Gtr I

W W

|---------------------------------|---------------------------------|

|---------------------------------|---------------------------------|

|-8-------------------------------|-7-------------------------------|

|---------------------------------|---------------------------------|

|---------------------------------|---------------------------------|

|---------------------------------|---------------------------------|

|

|Gtr II, III

| PM------------------------------------------------------------|

| E E E E E E E E E E E E E E E E

|---------------------------------|---------------------------------|

|---------------------------------|---------------------------------|

|---------------------------------|---------------------------------|

|-8---8---8---8---8---8---8---8---|-7---7---7---7---7---7---7---7---|

|-6---6---6---6---6---6---6---6---|-5---5---5---5---5---5---5---5---|

|---------------------------------|---------------------------------|

 

 

 

W W

|---------------------------------|-----------------------------------------|

|---------------------------------|-----------------------------------------|

|-8-------------------------------|-10--------------------------------------|

|---------------------------------|-----------------------------------------|

|---------------------------------|-----------------------------------------|

|---------------------------------|-----------------------------------------|

|

| PM--------------------------------------------------------------------|

| E E E E E E E E E E E E E E E E

|---------------------------------|-----------------------------------------|

|---------------------------------|-----------------------------------------|

|---------------------------------|-----------------------------------------|

|-8---8---8---8---8---8---8---8---|-10---10---10---10---10---10---10---10---|

|-6---6---6---6---6---6---6---6---|--8----8----8----8----8----8----8----8---|

|---------------------------------|-----------------------------------------|

 

 

 

W +W

|----------------------------------|------------------------------------|

|----------------------------------|------------------------------------|

|-12-------------------------------|-(12)-------------------------------|

|-13-------------------------------|-(13)-------------------------------|

|----------------------------------|------------------------------------|

|----------------------------------|------------------------------------|

|

| PM---------------------------------------------------------------|

| E E E E E E E E E E E E E E E E

|----------------------------------|------------------------------------|

|----------------------------------|------------------------------------|

|----------------------------------|------------------------------------|

|--8---8---8---8---8---8---8---8---|---7----7---7---7---7---7---7---7---|

|--6---6---6---6---6---6---6---6---|---5----5---5---5---5---5---5---5---|

|----------------------------------|------------------------------------|

 

 

 

+H. Q W

|-------------------------------------|-----------------------------------------|

|---------------------------15--------|-13--------------------------------------|

|-(12)--------------------------------|-----------------------------------------|

|-(13)--------------------------------|-10--------------------------------------|

|-------------------------------------|-----------------------------------------|

|-------------------------------------|-----------------------------------------|

|

| PM----------------------------------------------------------------------|

| E E E E E E E E E E E E E E E E

|-------------------------------------|-----------------------------------------|

|-------------------------------------|-----------------------------------------|

|-------------------------------------|-----------------------------------------|

|---8----8---8---8---8---8----8---8---|-10---10---10---10---10---10---10---10---|

|---6----6---6---6---6---6----6---6---|--8----8----8----8----8----8----8----8---|

|-------------------------------------|-----------------------------------------|

 

 

 

W

|-----------------------------------------|

|-13--------------------------------------|

|-----------------------------------------|

|-----------------------------------------|

|-----------------------------------------|

|-----------------------------------------|

|

| PM---------------------------------|

| E E E E E E E E

|-----------------------------------------|

|-----------------------------------------|

|-----------------------------------------|

|-10---10---10---10---10---10---10---10---|

|--8----8----8----8----8----8----8----8---|

|-----------------------------------------|

 

 

 

 

Chorus:

Gtr II, III

E E E E E E E E E E E E E E E E

||----------------------------------|---------------------------------|

||o---------------------------------|---------------------------------|

||----------------------------------|---------------------------------|

||--0---5---7---5---8---5---7---5---|-0---5---7---5---8---7---5---3---|

||o-0---5---7---5---8---5---7---5---|-0---5---7---5---8---7---5---3---|

||--0---5---7---5---8---5---7---5---|-0---5---7---5---8---7---5---3---|

 

 

Q Q a Q Q Q Q Q Q

|-----------------------------------|----------------------------------||

|-----------------------------------|---------------------------------o||

|-----------------------------------|----------------------------------||

|-1-------1-------------------------|-0-------0-------4-------7--------||

|-1-------1-------3s5-------3-------|-0-------0-------4-------7-------o||

|-1-------1-------------------------|-0-------0-------4-------7--------||

 

 

 

 

2nd Verse

w/Rhy Fig 2

Gtr I

W +W

|----------------------------------|------------------------------------|

|-13-------------------------------|-(13)-------------------------------|

|----------------------------------|------------------------------------|

|----------------------------------|------------------------------------|

|----------------------------------|------------------------------------|

|----------------------------------|------------------------------------|

 

 

 

w/Rhy Fig 3

W +W

|----------------------------------|------------------------------------|

|----------------------------------|------------------------------------|

|-12-------------------------------|-(12)-------------------------------|

|----------------------------------|------------------------------------|

|----------------------------------|------------------------------------|

|----------------------------------|------------------------------------|

 

 

 

w/Rhy Fig 2

+H. Q +W

|-------------------------------------|------------------------------------|

|-----------------------------13------|-(13)-------------------------------|

|-(12)--------------------------------|------------------------------------|

|-------------------------------------|------------------------------------|

|-------------------------------------|------------------------------------|

|-------------------------------------|------------------------------------|

 

 

 

w/Rhy Fig 3

W +W

|----------------------------------|------------------------------------|

|----------------------------------|------------------------------------|

|-12-------------------------------|-(12)-------------------------------|

|----------------------------------|------------------------------------|

|----------------------------------|------------------------------------|

|----------------------------------|------------------------------------|

 

 

 

 

Pre-Chorus

similar to previous, and add this:

 

Gtr I

+W

|-------------------------------------------|

|-(13)--------------------------------------|

|-------------------------------------------|

|-(10)--------------------------------------|

|-------------------------------------------|

|-------------------------------------------|

|

|Gtr II, III

| PM----------------------------------|

| E E E E E E E E

|-------------------------------------------|

|-------------------------------------------|

|-------------------------------------------|

|--10----10---10---10---10---10---10---10---|

|---8-----8----8----8----8----8----8----8---|

|-------------------------------------------|

 

 

 

 

Chorus

similar to previous

 

 

 

 

Interlude

Gtr I Gtr I

E Q. +H 8x E E E E E E E E 8x

||---------------------||-----------------------------------||

||o-------------------o||o---------------------------------o||

||---------------------||-----------------------------------||

||---------------------||--0---5---7---5---8---5---7---5----||

||o-------------------o||o---------------------------------o||

||--1s5-----(5)--------||-----------------------------------||

 

 

 

E E E E E E Q E E E E E E Q

|---------------------------------|---------------------------------|

|---------------------------------|---------------------------------|

|---------------------------------|---------------------------------|

|-0---5---7---5---8---7---5-------|-0---5---7---5---8---7---5-------|

|---------------------------------|---------------------------------|

|---------------------------------|---------------------------------|

 

 

E E E E E E Q E E Q E E Q

|---------------------------------|---------------------------------|

|---------------------------------|---------------------------------|

|---------------------------------|---------------------------------|

|-0---5---7---5---8---7---5-------|-8---7---5-------8---7---5-------|

|---------------------------------|---------------------------------|

|---------------------------------|---------------------------------|

 

 

 

 

Pre-Chorus

similar to previous (without the distorted guitars, of course), and add this:

 

Gtr I

+W 3x

||--------------------------------------||

||o-(13)-------------------------------o||

||--------------------------------------||

||--(10)--------------------------------||

||o------------------------------------o||

||--------------------------------------||

 

 

 

 

Ending Chorus

Gtr II, III

E E E E E E E E E E E E E E E E

|---------------------------------|---------------------------------|

|---------------------------------|---------------------------------|

|---------------------------------|---------------------------------|

|-0---5---7---5---8---5---7---5---|-0---5---7---5---8---5---7---5---|

|-0---5---7---5---8---5---7---5---|-0---5---7---5---8---5---7---5---|

|-0---5---7---5---8---5---7---5---|-0---5---7---5---8---5---7---5---|

 

 

 

E E E E E E E E E E E E E E E E

||----------------------------------|---------------------------------|

||o---------------------------------|---------------------------------|

||----------------------------------|---------------------------------|

||--0---5---7---5---8---5---7---5---|-0---5---7---5---8---7---5---3---|

||o-0---5---7---5---8---5---7---5---|-0---5---7---5---8---7---5---3---|

||--0---5---7---5---8---5---7---5---|-0---5---7---5---8---7---5---3---|

 

 

 

Q Q a Q Q Q Q Q Q

|-----------------------------------|----------------------------------||

|-----------------------------------|---------------------------------o||

|-----------------------------------|----------------------------------||

|-1-------1-------------------------|-0-------0-------4-------7--------||

|-1-------1-------3s5-------3-------|-0-------0-------4-------7-------o||

|-1-------1-------------------------|-0-------0-------4-------7--------||

 

 

 

Old school Hollywood baseball

Old school Hollywood baseball

 

Tony Danza cuts in line

Old school Hollywood, washed up Hollywood

Standing in the sun, I'm wasting my time

Old school Hollywood, washed up Hollywood

 

Old school Hollywood baseball

Jack Gilardi's ten feet tall

Old school Hollywood baseball

Me and Frankie Avalon

 

Old school Hollywood, washed up Hollywood

Old school Hollywood, washed up Hollywood

 

Hey man, don't you touch my belt

Old school Hollywood, washed up Hollywood

Standing in the sun, I'm about to melt

Old school Hollywood, washed up Hollywood

 

 

- 5th /February /05

Just mail me at Maitinin@gmail.com with questions, comments or corrections!

Return to my System of a Down tabs page

The Tablature is Copyright its respective owners.

Sign Up For My Newsletter
Subscribe | Unsubscribe

Site Map | Disclaimer | Privacy Policy | Media Kit | Submissions/Corrections

Website © 2000-2014 mattsmusicpage.com. All rights reserved.

Legal & DMCA: Matt's Music Page has been providing lyrics and tabs in a legal way, paying royalties each year to a few organizations. Then, all lyrics and tabs were removed from the site. Now, there's a new owner to the site, which purchased it August 26, 2014, and he is in negotiation to obtain licensing from BMI at the moment. If you have a specific DMCA request -- please do not hesitate to contact me via the contact button on top. I will do my very best to keep this site fully legal.

Get our toolbar!