Your One-Stop Source For
Music Lyrics
Bass and Guitar Tabs
and More...
Music Lyrics Bass and Guitar Tabs

 

The Tabs Are Below

Learn To Read Tab
Chords Handbook
Corrections & Additions
Get Official Tab
SOAD tabs @ 911Tabs

/ System of a Down / I think this song is about Daron's disgust for

/ Lost In Hollywood / Hollywood and it's way of consuming and abusing

/ Mezmerize / so many poor people, who gambled everything they

/____________________/ own to taste the advertised and 'invaluable' fame.

 

 

 

C5 E5 G5

x 3 5 5 x x 2 2 2 x x x 5 5 5 x x x

 

A5 F5

x 0 2 2 x x 3 3 3 x x x

 

 

Tuning: Db Ab Db Gb Bb Eb

C# G# C# F# A# D#

Gtr I - Electric, Clean

Gtr II - Steel Stringed Acoustic, Clean

Gtr III - Electric, Lightly Overdriven

Gtr IV - Electric, Clean

Gtr V - Electric, Clean

 

 

 

Intro

Q=77 bpm

4/4

Gtr I

Am Am

S S S S S S S S S S S S S S S S S S S S S S S S S S S S S S S S

|---------------------------------|---------------------------------|

|---------------------------------|---------------------------------|

|---------------------------------|---------------------------------|

|-2-2-2-2-2-2-2-2-3-3-3-3-3-3-3s9-|-9-9-9-9-9-9-9-9-7-7-7-7-7-7-7-0-|

|-0-0-0-0-0-0-0-0-0-0-0-0-0-0-0---|-0-0-0-0-0-0-0-0-0-0-0-0-0-0-0-0-|

|---------------------------------|---------------------------------|

 

 

 

Gtr I, II

S S S S S S S S S S S S S S S S S S S S S S S S S S S S S S S S

|----------------------------------|----------------------------------------|

|----------------------------------|----------------------------------------|

|----------------------------------|----------------------------------------|

|-2-2-2-2-2-2-2-2-3-3-3-3-3-3-3s12-|-12-12-12-12-12-12-12s7-7-7-7-7-7-7-7-0-|

|-0-0-0-0-0-0-0-0-0-0-0-0-0-0-0----|--0--0--0--0--0--0--0---0-0-0-0-0-0-0-0-|

|----------------------------------|----------------------------------------|

 

 

 

S S S S S S S S S S S S S S S S S S S S S S S S S S S S S S S S

|---------------------------------|---------------------------------|

|---------------------------------|---------------------------------|

|---------------------------------|---------------------------------|

|-2-2-2-2-2-2-2-2-3-3-3-3-3-3-3s9-|-9-9-9-9-9-9-9-9-7-7-7-7-7-7-7-0-|

|-0-0-0-0-0-0-0-0-0-0-0-0-0-0-0---|-0-0-0-0-0-0-0-0-0-0-0-0-0-0-0-0-|

|---------------------------------|---------------------------------|

 

 

 

S S S S S S S S S S S S S S S S S S S S S S S S S S S S S S S S

|----------------------------------|------------------------------------------------|

|----------------------------------|------------------------------------------------|

|----------------------------------|------------------------------------------------|

|-2-2-2-2-2-2-2-2-3-3-3-3-3-3-3s12-|-12-12-12-12-12-12-12s14-14-14-14-14-14-14-14---|

|-0-0-0-0-0-0-0-0-0-0-0-0-0-0-0----|--0--0--0--0--0--0--0-----0--0--0--0--0--0--0-0-|

|----------------------------------|------------------------------------------------|

 

 

 

 

1st Verse

Gtr I, II

Am Am

Q S S S S S S S S S S S S S S S S S S S S S S S S S S S S

|----------------------------------|----------------------------------|

|----------------------------------|----------------------------------|

|----------------------------------|----------------------------------|

|-7-------7-------9-------10-------|---------10-------9-------7-------|

|-7---------7---7---7---7----7---7-|---7---7----7---7---7---7---7---7-|

|-7-----------7-------7--------7---|-7---7--------7-------7-------7---|

 

 

 

Am Am

S S S S S S S S S S S S S S S S S S S S S S S S S S S S S S S S

|----------------------------------|----------------------------------|

|----------------------------------|----------------------------------|

|----------------------------------|-9--------------------------------|

|---------7-------9-------10-------|---------10-------9-------7-------|

|---7---7---7---7---7---7----7---7-|---7---7----7---7---7---7---7---7-|

|-7---7-------7-------7--------7---|-----7--------7-------7-------7---|

 

 

 

Gtr II

C5 E5

Q. S E S S E E. Q E. E. E S S E

| | | | | | | | | | | | | |

/ / / / / / / / / / / / / /

 

Gtr I

Cadd9 E

E S S S S S E S S E S S S E S S S S S S S S S S S S S S

|---------------------------------|---------------------------------|

|---------------3-------3---------|-0-------0-----0-----0-----------|

|-5-------5-----------------------|-4-------4-----4-----4---4-5-4-0-|

|-5-----5---5-------5-------5---5-|-2---2-2-2-2-2-2-2-2-2-2---------|

|-3---3-------3-------3-------3---|---------------------------------|

|---------------------------------|---------------------------------|

 

 

 

 

 

2nd Verse

similar to 1st Verse

 

 

 

 

Interlude

Gtr I, II

S S S S S S S S S S S S S S S S S S S S S S S S S S S S S S S S

|---------------------------------|---------------------------------|

|---------------------------------|---------------------------------|

|---------------------------------|---------------------------------|

|-2-2-2-2-2-2-2-2-3-3-3-3-3-3-3s9-|-9-9-9-9-9-9-9-9-7-7-7-7-7-7-7-0-|

|-0-0-0-0-0-0-0-0-0-0-0-0-0-0-0---|-0-0-0-0-0-0-0-0-0-0-0-0-0-0-0-0-|

|---------------------------------|---------------------------------|

 

 

 

S S S S S S S S S S S S S S S S S S S S S S S S S S S S S S S S

|----------------------------------|------------------------------------------------|

|----------------------------------|------------------------------------------------|

|----------------------------------|------------------------------------------------|

|-2-2-2-2-2-2-2-2-3-3-3-3-3-3-3s12-|-12-12-12-12-12-12-12s14-14-14-14-14-14-14-14---|

|-0-0-0-0-0-0-0-0-0-0-0-0-0-0-0----|--0--0--0--0--0--0--0-----0--0--0--0--0--0--0-0-|

|----------------------------------|------------------------------------------------|

 

 

 

 

3rd Verse

Gtr I

Q S S S S S S S S S S S S S S S S S S S S S S S S S S S S

|----------------------------------|----------------------------------|

|----------------------------------|----------------------------------|

|----------------------------------|----------------------------------|

|-7-------7-------9-------10-------|---------10-------9-------7-------|

|-7---------7---7---7---7----7---7-|---7---7----7---7---7---7---7---7-|

|-7-----------7-------7--------7---|-7---7--------7-------7-------7---|

 

 

 

S S S S S S S S S S S S S S S S S S S S S S S S S S S S S S S S

|----------------------------------|----------------------------------|

|----------------------------------|----------------------------------|

|----------------------------------|-9--------------------------------|

|---------7-------9-------10-------|---------10-------9-------7-------|

|---7---7---7---7---7---7----7---7-|---7---7----7---7---7---7---7---7-|

|-7---7-------7-------7--------7---|-----7--------7-------7-------7---|

 

 

 

E S S S S S E S S E S S S E S S S S S S S S S S S S S S

|---------------------------------|---------------------------------|

|---------------3-------3---------|-0-------0-----0-----0-----------|

|-5-------5-----------------------|-4-------4-----4-----4---4-5-4-0-|

|-5-----5---5-------5-------5---5-|-2---2-2-2-2-2-2-2-2-2-2---------|

|-3---3-------3-------3-------3---|---------------------------------|

|---------------------------------|---------------------------------|

 

 

 

 

4th Verse

similar to 3rd Verse

 

 

 

 

Chorus

Gtr III

C6 C G6 G

Q E. E S S S E E Q E. E S S S E E

||------------------------------------------|---------------------------------|

||o-----------------------------------------|---------------------------------|

||------------------------------------------|---------------------------------|

||------------------------------------------|---------------------------------|

||o-12-------10-----10---10-10-10-10---10---|-7-------5-----5---5-5-5-5---5---|

||--10-------10-----10---10-10-10-10---10---|-5-------5-----5---5-5-5-5---5---|

 

 

 

Am#5 Am Em#5 Em F6 F

Q E. E S E E E Q E S S Q E S S 6x

|---------------------------------|-----------------------------------||

|---------------------------------|----------------------------------o||

|---------------------------------|-----------------------------------||

|---------------------------------|-----------------------------------||

|-8-------7-----7---7-7---7---7---|-3-------2---2-2-5-------3---3s10-o||

|-7-------7-----7---7-7---7---7---|-2-------2---2-2-3-------3---3s10--||

 

 

 

 

Bridge:

Gtr IV

Am E7/B F6 E

S S S S S S S S S S S S S S S S S S S S S S S S S S S S S S S S

|---------0---------------0-------|---------1---------------0-------|

|-------1---1-----------0---0-----|-----3-----3---------0-----0-----|

|-----2-------2-------1-------1---|---2---2-----2-----1---1-----1---|

|---2-----------2---0-----------0-|-3-------------3-2-------------2-|

|-0---------------2---------------|---------------------------------|

|---------------------------------|---------------------------------|

|-Rhy Fig 1

 

 

 

Gtr IV

Dm C6 E7/B

S S S S S S S S S S S S S S S S S S S S S S S S S S S S S S S S

|----------1--------------------------|----------0---------------0-------|

|------3-----3---------------1--------|--------0---0-----------0---0-----|

|----2---2-----2--------2------2------|------1-------1-------1-------1---|

|--0-------------0----2---2------2----|----0-----------0---0-----------0-|

|-------------------3---------------3-|--2---------------2---------------|

|-------------------------------------|----------------------------------|

| end Rhy Fig 1-|

|

|Gtr I

| H Q E. S W

|-------------------------------------|----------------------------------|

|-18---------------17-------15-----13-|-12-------------------------------|

|-19---------------17-------16-----14-|-13-------------------------------|

|-------------------------------------|----------------------------------|

|-------------------------------------|----------------------------------|

|-------------------------------------|----------------------------------|

 

 

 

w/Rhy Fig 1

Gtr I

H H H H

|-------------------------------------|----------------------------------|

|-17---------------15-----------------|-18--------------17---------------|

|-17---------------16-----------------|-19--------------17---------------|

|-------------------------------------|----------------------------------|

|-------------------------------------|----------------------------------|

|-------------------------------------|----------------------------------|

|-Rhy Fig 2

 

 

 

H Q E. S W

|-------------------------------------|----------------------------------|

|-18---------------17-------15-----13-|-12-------------------------------|

|-19---------------17-------16-----14-|-13-------------------------------|

|-------------------------------------|----------------------------------|

|-------------------------------------|----------------------------------|

|-------------------------------------|----------------------------------|

end Rhy Fig 2-|

 

 

 

w/Rhy Fig 1 + 2

Gtr V

S S S S S S S S S S S S S S S S S S S S S S S S S S S S S S S S

|-------------------------------------------------|-------------------------------------------------|

|----------15-17-15-------18-17-------17-15-------|-20-18-17-15-18-17-------17-15-------15-13-------|

|-14-16-17----------17-16-------17-16-------17-16-|-------------------17-16-------17-16-------16-14-|

|-------------------------------------------------|-------------------------------------------------|

|-------------------------------------------------|-------------------------------------------------|

|-------------------------------------------------|-------------------------------------------------|

 

 

 

H Q E. S W

|-------------------------------------|---------------------------------|

|-15---------------13-------12-----10-|-9-------------------------------|

|-------------------------------------|---------------------------------|

|-------------------------------------|---------------------------------|

|-------------------------------------|---------------------------------|

|-------------------------------------|---------------------------------|

 

 

 

 

Chorus

Gtr II

C5 G5

S S S S S S S S S S S S S S S S S S S S S S S S S S S S S S S S

| | | | | | | | | | | | | | | | | | | | | | | | | | | | | | | |

/ / / / / / / / / / / / / / / / / / / / / / / / / / / / / / / /

 

Gtr III

Q E. E S S S E E Q E. E S S S E E

||------------------------------------------|---------------------------------|

||o-----------------------------------------|---------------------------------|

||------------------------------------------|---------------------------------|

||------------------------------------------|---------------------------------|

||o-12-------10-----10---10-10-10-10---10---|-7-------5-----5---5-5-5-5---5---|

||--10-------10-----10---10-10-10-10---10---|-5-------5-----5---5-5-5-5---5---|

 

 

 

A5 E5 F5

S S S S S S S S S S S S S S S S S S S S S S S S S S S S S S S S

| | | | | | | | | | | | | | | | | | | | | | | | | | | | | | | |

/ / / / / / / / / / / / / / / / / / / / / / / / / / / / / / / /

 

Q E. E S E E E Q E S S Q E S S 2x

|---------------------------------|-----------------------------------||

|---------------------------------|----------------------------------o||

|---------------------------------|-----------------------------------||

|---------------------------------|-----------------------------------||

|-8-------7-----7---7-7---7---7---|-3-------2---2-2-5-------3---3s10-o||

|-7-------7-----7---7-7---7---7---|-2-------2---2-2-3-------3---3s10--||

 

 

 

Gtr III

Q E. E S S S E E Q E. E S S S E E

||------------------------------------------|---------------------------------|

||o-----------------------------------------|---------------------------------|

||------------------------------------------|---------------------------------|

||------------------------------------------|---------------------------------|

||o-12-------10-----10---10-10-10-10---10---|-7-------5-----5---5-5-5-5---5---|

||--10-------10-----10---10-10-10-10---10---|-5-------5-----5---5-5-5-5---5---|

 

 

 

Q E. E S E E E Q E S S Q E S S 4x

|---------------------------------|-----------------------------------||

|---------------------------------|----------------------------------o||

|---------------------------------|-----------------------------------||

|---------------------------------|-----------------------------------||

|-8-------7-----7---7-7---7---7---|-3-------2---2-2-5-------3---3s10-o||

|-7-------7-----7---7-7---7---7---|-2-------2---2-2-3-------3---3s10--||

 

 

 

 

Outro

Gtr I

E S S S S S S S S S S S S S S S S S S S S S S S S S S S S S S

|----------------------------------|----------------------------------|

|----------------------------------|----------------------------------|

|----------------------------------|----------------------------------|

|-7-------7-------9-------10-------|---------10-------9-------7-------|

|-7-----7---7---7---7---7----7---7-|---7---7----7---7---7---7---7---7-|

|-7---7-------7-------7--------7---|-7---7--------7-------7-------7---|

 

 

 

S S S S S S S S S S S S S S S S S S S S S S S S S S S S S S S S

|----------------------------------|----------------------------------|

|----------------------------------|----------------------------------|

|----------------------------------|-9--------------------------------|

|---------7-------9-------10-------|---------10-------9-------7-------|

|---7---7---7---7---7---7----7---7-|---7---7----7---7---7---7---7---7-|

|-7---7-------7-------7--------7---|-----7--------7-------7-------7---|

 

 

 

E S S S S S E S S E S S S Q E. E S E S S E

|---------------------------------|---------------------------------|

|---------------3-------3---------|---------------------------------|

|-5-------5-----------------------|-4-------4-----4-----4---4-5-4---|

|-5-----5---5-------5-------5---5-|-2-----------------2-------------|

|-3---3-------3-------3-------3---|---------------------------------|

|---------------------------------|---------------------------------|

 

 

 

W

|---------------------------------|

|---------------------------------|

|-2-------------------------------|

|-2-------------------------------|

|-0-------------------------------|

|---------------------------------|

 

 

 

 

- 20th /September /05

Just mail me at Maitinin@gmail.com with questions, comments and corrections!

Return to my System of a Down tabs page

The Tablature is Copyright its respective owners.

Sign Up For My Newsletter
Subscribe | Unsubscribe

Site Map | Disclaimer | Privacy Policy | Media Kit | Submissions/Corrections

Website © 2000-2014 mattsmusicpage.com. All rights reserved.

Legal & DMCA: Matt's Music Page has been providing lyrics and tabs in a legal way, paying royalties each year to a few organizations. Then, all lyrics and tabs were removed from the site. Now, there's a new owner to the site, which purchased it August 26, 2014, and he is in negotiation to obtain licensing from BMI at the moment. If you have a specific DMCA request -- please do not hesitate to contact me via the contact button on top. I will do my very best to keep this site fully legal.

Get our toolbar!

 

Starbucks You Are Here Coffee Mug/Cup KENTUCKY - Horses, Banjo, Blue, White
$19.99
Starbucks You Are Here Coffee Mug/Cup KENTUCKY - Horses, Banjo, Blue, White picture


KNOWLES ROCKWELL HERITAGE "THE BANJO PLAYER" FIRST EDITION 1989 PLATE COA
$5.99
KNOWLES ROCKWELL HERITAGE


Vintage Postcard 1981 Disney World Banjo Kings Main Street USA 1981 Postmark
$4.99
 Vintage Postcard 1981 Disney World Banjo Kings Main Street USA 1981 Postmark picture


Banjo Barometer With Thermometer Hygrometer 490mm
$84.76
Banjo Barometer With Thermometer Hygrometer 490mm picture


ANTIQUE JAPANESE NIPPON FIGURINE SET OF 3 WOMEN GEISHA PLAYING DRUM BANJO FAN
$24.0
ANTIQUE JAPANESE NIPPON FIGURINE SET OF 3 WOMEN GEISHA PLAYING DRUM BANJO FAN picture