Your One-Stop Source For
Music Lyrics
Bass and Guitar Tabs
and More...
Music Lyrics Bass and Guitar Tabs

 

The Tabs Are Below

Learn To Read Tab
Chords Handbook
Corrections & Additions
Get Official Tab
SOAD tabs @ 911Tabs

Intro x6 (Clean)

 

----------------------------------------------------------------------------|

---------4-----------------------------4------------------------------------|

-------------------------6-----------4---4-----------6----------------------|

------6-----6----------6----6------4-------4-------6---6--------------------|

----6---------6------4--------4--2---------------4-------4------------------|

--4---------------0---------------------------0-----------------------------|

 

 

Chorus x2 (Distorcion)

 

----------------------------------------------------------------------------|

----------------------------------------------------------------------------|

----------------------------------------------------------------------------|

----------------------------------------------------------------------------|

---4--4----7--7----2--2----6--6---------------------------------------------|

---4--4----7--7----2--2----6--6---------------------------------------------|

 

 

Verse x4 (clean)

 

----------------------------------------------------------------------------|

---------4-----------------------------4------------------------------------|

-------------------------6-----------4---4-----------6----------------------|

------6-----6----------6----6------4-------4-------6---6--------------------|

----6---------6------4--------4--2---------------4-------4------------------|

--4---------------0---------------------------0-----------------------------|

 

 

Interlude x2 (Distorcion)

 

 

----------------------------------------------------------------------------|

----------------------------------------------------------------------------|

----------------------------------------------------------------------------|

----------------------------------------------------------------------------|

---7--7----6--6----9--9----8--8---------------------------------------------|

---7--7----6--6----9--9----8--8---------------------------------------------|

 

Interlude x1 (Distorcion - Palm Mute)

 

----------------------------------------------------------------------------|

----------------------------------------------------------------------------|

----------------------------------------------------------------------------|

----------------------------------------------------------------------------|

---7-7-7-7-7-7-7-7-7-7--6-6-6-6-6-6-6-6-6-6---------------------------------|

---7-7-7-7-7-7-7-7-7-7--6-6-6-6-6-6-6-6-6-6---------------------------------|

 

 

Chorus x8 (Distorcion)

 

----------------------------------------------------------------------------|

----------------------------------------------------------------------------|

----------------------------------------------------------------------------|

----------------------------------------------------------------------------|

---4--4----7--7----2--2----6--6---------------------------------------------|

---4--4----7--7----2--2----6--6---------------------------------------------|

 

 

Intro x2 (Clean)

 

----------------------------------------------------------------------------|

---------4-----------------------------4------------------------------------|

-------------------------6-----------4---4-----------6----------------------|

------6-----6----------6----6------4-------4-------6---6--------------------|

----6---------6------4--------4--2---------------4-------4------------------|

--4---------------0---------------------------0-----------------------------|

Return to my System of a Down tabs page

The Tablature is Copyright its respective owners.

Sign Up For My Newsletter
Subscribe | Unsubscribe

Site Map | Disclaimer | Privacy Policy | Media Kit | Submissions/Corrections

Website © 2000-2014 mattsmusicpage.com. All rights reserved.

Legal & DMCA: Matt's Music Page has been providing lyrics and tabs in a legal way, paying royalties each year to a few organizations. Then, all lyrics and tabs were removed from the site. Now, there's a new owner to the site, which purchased it August 26, 2014, and he is in negotiation to obtain licensing from BMI at the moment. If you have a specific DMCA request -- please do not hesitate to contact me via the contact button on top. I will do my very best to keep this site fully legal.

Get our toolbar!