Your One-Stop Source For
Music Lyrics
Bass and Guitar Tabs
and More...
Music Lyrics Bass and Guitar Tabs

 

The Tabs Are Below

Learn To Read Tab
Chords Handbook
Corrections & Additions
Get Official Tab
SOAD tabs @ 911Tabs

System of a Down

Streamline

 

Drop D or C tuning (I was playing I stand alone by godsmack and didn't feel like changing

the tuning)

 

Intro: with palm mute,

 

/--------------------------------

/--------------------------------

/--------------------------------

/--------------------------------

/--------------------------------

/---0--5-6^---0-0-5-0------------

 

 

Main Riff:

 

/--------------------------------

/--------------------------------

/--------------------------------

/--------------------------------

/---0--5------0-0-5-0------------

/---0--5-6^---0-0-5-0------------

 

 

I wasn't there for you part:

 

 

/---------------------

/---------------------

/---------------------

/-8-8-8-8-7-5---------

/-8-8-8-8-7-5---------

/-8-8-8-8-7-5---------

 

 

other part: slight palm mute or play it clean,

 

 

/--------------------------------------------------

/--------------------------------------------------

/--------14--------------15---------12-------------

/-----12--- 6x -----13---------10----------------

/--12--------------13---------10-------------------

/--------------------------------------------------

 

 

 

/------------------------

/------------------------

/------------------------

/------------------------

/---0--5------0-0-5-0----

/---0--5-6^---0-0-5-0----

 

then back into the main riff

 

Thats all I figured out so far so U will have to find the rest yourself. if u have any

questions email me at Shadow2581@hotmail.com

Return to my System of a Down tabs page

The Tablature is Copyright its respective owners.

Sign Up For My Newsletter
Subscribe | Unsubscribe

Site Map | Disclaimer | Privacy Policy | Media Kit | Submissions/Corrections

Website © 2000-2014 mattsmusicpage.com. All rights reserved.

Legal & DMCA: Matt's Music Page has been providing lyrics and tabs in a legal way, paying royalties each year to a few organizations. Then, all lyrics and tabs were removed from the site. Now, there's a new owner to the site, which purchased it August 26, 2014, and he is in negotiation to obtain licensing from BMI at the moment. If you have a specific DMCA request -- please do not hesitate to contact me via the contact button on top. I will do my very best to keep this site fully legal.

Get our toolbar!

 

The Rolling Stones Turntable Musical Christmas Ornament Plays GIMME SHELTER
$15.0
The Rolling Stones Turntable Musical Christmas Ornament Plays GIMME SHELTER picture


The Rolling Stones Turntable Musical Christmas Ornament Plays "Gimme Shelter"
$15.0
The Rolling Stones Turntable Musical Christmas Ornament Plays


The Rolling Stones Turntable Musical Ornament Let's Spend The Night Together
$15.0
The Rolling Stones Turntable Musical Ornament Let's Spend The Night Together picture


The Rolling Stones Turntable Musical Ornament "Let's Spend The Night Together"
$15.0
The Rolling Stones Turntable Musical Ornament


The Rolling Stones Turntable Musical Ornament Plays "Sympathy For The Devil"
$15.0
The Rolling Stones Turntable Musical  Ornament Plays