Your One-Stop Source For
Music Lyrics
Bass and Guitar Tabs
and More...
Music Lyrics Bass and Guitar Tabs

 

The Tabs Are Below

Learn To Read Tab
Chords Handbook
Corrections & Additions
Get Official Tab
SOAD tabs @ 911Tabs

BAND : System of a down

TITLE: Soil

ALBUM: System of a Down

Tuning: Drop D tuning

Tabbed by KoRotz

Contact me if you have any necessary changes that need to be made at

epat_skateboarding@hotmail.com or lovehatetragedy@paparoachmail.com

 

This song is probably one of the hardest songs to play from System becuase of the solo.

Anyways heres my version of it and I say its pretty close cause I watched Darren during

their concert and it's Pretty much 100% correct. Also I'd been trying to get the tabs

for this song for sooo long but no one had bothered to do it properly with the solo and

everything so I had to do it for myself in the end. And during the concert the solo

intro is different from the album version so I put both of them in there.

 

ENJOY!!

 

 

INTRO 1

Strum this with a clean effect

e|--------------------|

B|--10----------------|

G|--x-----------------|

D|--7-----------------|

A|--8-----------------|

D|--------------------|

 

INTRO 2/CHORUS

Play with heavy distortion

e|---------------------------------------|

B|---------------------------------------|

G|---------------------------------------|

D|-3-1-0-0h3-1-0----3-1-0-0h3-1/4-4------|

A|-3-1-0-0h3-1-0----3-1-0-0h3-1/4-4------|

D|-3-1-0-0h3-1-0----3-1-0-0h3-1/4-4------|

 

PRE-CHORUS

VERSE There's a bit before the chourus

The rhythm here is really wierd that goes like this

e|-------------------------------------| |--------------|

B|-------------------------------------| |--------------|

G|-------------------------------------| |--------------|

D|-------------------------------------| |-00--0-1-3----|

A|-------------------------------------| |-00--0-1-3----|

D|-3-1-0-0h3-1-0/4---------------------| |-00--0-1-3----|

p.m

 

BRIDGE 1

 

e|---------------------------------------------13---|

Return to my System of a Down tabs page

The Tablature is Copyright its respective owners.

Sign Up For My Newsletter
Subscribe | Unsubscribe

Site Map | Disclaimer | Privacy Policy | Media Kit | Submissions/Corrections

Website © 2000-2014 mattsmusicpage.com. All rights reserved.

Legal & DMCA: Matt's Music Page has been providing lyrics and tabs in a legal way, paying royalties each year to a few organizations. Then, all lyrics and tabs were removed from the site. Now, there's a new owner to the site, which purchased it August 26, 2014, and he is in negotiation to obtain licensing from BMI at the moment. If you have a specific DMCA request -- please do not hesitate to contact me via the contact button on top. I will do my very best to keep this site fully legal.

Get our toolbar!