Your One-Stop Source For
Music Lyrics
Bass and Guitar Tabs
and More...
>Music Lyrics Bass and Guitar Tabs

 

The Tabs Are Below

Learn To Read Tab
Chords Handbook
Corrections & Additions
Get Official Tab
SOAD tabs @ 911Tabs

System Of A Down

Roulette

Tabbed by Shanus (panteraman69@hotmail.com)

 

Its in standard system tuning, even though they use

a different tuning, Im not bothered.

 

Intro/Verse:

D|------------------------------------------------|

A|---6-----6-----10-----5-----8-----8-----3----5--|

F|------------------------------------------------|

C|------------------------------------------------|

G|-5---5-5---5/8----0-3---3-6---6-6---0-1---1-3--3|

C|------------------------------------------------|

 

Chorus:

D|------------------------------------------------|

A|---6-----6-----2-----2-----5-----5-----3-----5--|

F|------------------------------------------------|

C|------------------------------------------------|

G|-5---5-5---5-0---0-0---0-3---3-3---3-1---1-3---3|

C|------------------------------------------------|

 

Solo: x2

D|-10---10-12-13---12-13-15---12-13-15-13-12-10-12-13-12-

A|-------------------------------------------------------

F|-------------------------------------------------------

C|-------------------------------------------------------

G|-------------------------------------------------------

C|-------------------------------------------------------

 

(the slide area here for timing)

-10-10----------------------------------------------------------|

--------10-10---10-11-13-11-10-8-10-11-10-8-8------7\6-6\5-5\3-3|

----------------------------------------------5-5--8\7-7\5-5\3-3|

----------------------------------------------------------------|

----------------------------------------------------------------|

----------------------------------------------------------------|

 

Finish On:

D|----5---|

A|---6----|

F|--7-----|

C|-7------|

G|5-------|

C|--------|

 

 

Downloaded from www.taborama.com

 

================================================================================

 

 

 

Roulette

System of a Down

Steal This Album

Tabbed By Eugene Biianov

 

C F Bb Eb G C (whole guitar down 4 flats) works better,

and is how I play it (and they do too)

This is tabbed in their usuall tuning.

Will sound just as great in Standard tuning or anything Lower.

Solo might be tricky with some dreadnought acoustics.

 

ONCE AGAIN I STRESS THIS SHOULD BE PLAYED IN C F Bb Eb G C

 

One note: when playing: the notes on the 5G string: dont only slide

to the next one but hit it too. For example: -7-/10- should actually

be -7/10-10-

 

D :|*-----------------------------|----------------------------*3|

A :|*---8-----8-------12-------7--|---10-----10------5------7--*||

F :| -----------------------------|---------------------------- ||

C :| -----------------------------|---------------------------- ||

G :| /7---7-7---7-/10----10-5---5|/8----8-8----8-3---3-/5---5 ||

C :| -----------------------------|---------------------------- ||

 

D :|*-----------------------------|----------------------------*3|

A :|*-----------------------------|----------------------------*||

F :| -----------------------------|---------------------------- ||

C :| -----------------------------|---------------------------- ||

G :| -----------------------------|---------------------------- ||

C :| -----------------------------|---------------------------- ||

 

 

 

D :|*-------------------------|--------------------------*1|

A :|*---8-----8------4-----4--|---7-----7------5------7--*||

F :| -------------------------|-------------------------- ||

C :| -------------------------|-------------------------- ||

G :| /7---7-7---7-2---2-2---2|/5---5-5---5-3---3-/5---5 ||

C :| -------------------------|-------------------------- ||

 

D :|*-------------------------|--------------------------*1|

A :|*-------------------------|--------------------------*||

F :| -------------------------|-------------------------- ||

C :| -------------------------|-------------------------- ||

G :| -------------------------|-------------------------- ||

C :| -------------------------|-------------------------- ||

 

 

 

D :|*-----------------------------|----------------------------*3|

A :|*---8-----8-------12-------7--|---10-----10------5------7--*||

F :| -----------------------------|---------------------------- ||

C :| -----------------------------|---------------------------- ||

G :| /7---7-7---7-/10----10-5---5|/8----8-8----8-3---3-/5---5 ||

C :| -----------------------------|---------------------------- ||

 

D :|*-----------------------------|----------------------------*3|

A :|*-----------------------------|----------------------------*||

F :| -----------------------------|---------------------------- ||

C :| -----------------------------|---------------------------- ||

G :| -----------------------------|---------------------------- ||

C :| -----------------------------|---------------------------- ||

 

 

D :|*-------------------------|--------------------------*3|

A :|*---8-----8------4-----4--|---7-----7------5------7--*||

F :| -------------------------|-------------------------- ||

C :| -------------------------|-------------------------- ||

G :| /7---7-7---7-2---2-2---2|/5---5-5---5-3---3-/5---5 ||

C :| -------------------------|-------------------------- ||

 

D :|*-------------------------|--------------------------*3|

A :|*-------------------------|--------------------------*||

F :| -------------------------|-------------------------- ||

C :| -------------------------|-------------------------- ||

G :| -------------------------|-------------------------- ||

C :| -------------------------|-------------------------- ||

 

 

 

D :|*----------------------|-------------------------|

A :|*-------8-------8------|-------12---------7------|

F :| ----------------------|-------------------------|

C :| ----------------------|-------------------------|

G :| /-7------7---7----7---|/10-------10-5------5---|

C :| ----------------------|-------------------------|

 

D :|*-12-^------------12-14|-15-^---------------14-15|

A :|*----------------------|-------------------------|

F :| ----------------------|-------------------------|

C :| ----------------------|-------------------------|

G :| ----------------------|-------------------------|

C :| ----------------------|-------------------------|

 

 

 

D :------------------------|--------------------------|

A :-------10-------10------|--------5------------7----|

F :------------------------|--------------------------|

C :------------------------|--------------------------|

G :/-8-------8---8-----8---|-3--------3-/-5--------5-|

C :------------------------|--------------------------|

 

D :-17-^--------------14-15|-17-15-14-12--14-15-14-12-|

A :------------------------|--------------------------|

F :------------------------|--------------------------|

C :------------------------|--------------------------|

G :------------------------|--------------------------|

C :------------------------|--------------------------|

 

 

 

D :-----------------------|--------------------------|

A :------8---------8------|-------12------------7----|

F :-----------------------|--------------------------|

C :-----------------------|--------------------------|

G :/-7------7----7----7---|/10-------10--5--------5-|

C :-----------------------|--------------------------|

 

D :-12--------------------|--------------------------|

A :--------12-12-----12-13|-15-13-12-10--12-13-12-10-|

F :-----------------------|--------------------------|

C :-----------------------|--------------------------|

G :-----------------------|--------------------------|

C :-----------------------|--------------------------|

 

 

 

D :--------------------|----------------------*1|

A :------10-------10---|-------5----------7---*||

F :--------------------|---------------------- ||

C :--------------------|---------------------- ||

G :/-8------8---8----8-|-3-------3-/5------5- ||

C :--------------------|---------------------- ||

 

D :--------------------|----------------------*1|

A :-10-----------------|--9-8-8-7--7-5-5---*||

F :---------7-7--------|-10-9-9-7--7-5-5--- ||

C :--------------------|---------------------- ||

G :--------------------|---------------------- ||

C :--------------------|---------------------- ||

 

 

 

D :|*-------------------------|--------------------------*3|

A :|*---8-----8------4-----4--|---7-----7------5------7--*||

F :| -------------------------|-------------------------- ||

C :| -------------------------|-------------------------- ||

G :| /7---7-7---7-2---2-2---2|/5---5-5---5-3---3-/5---5 ||

C :| -------------------------|-------------------------- ||

 

D :|*-------------------------|--------------------------*3|

A :|*-------------------------|--------------------------*||

F :| -------------------------|-------------------------- ||

C :| -------------------------|-------------------------- ||

G :| -------------------------|-------------------------- ||

C :| -------------------------|-------------------------- ||

 

 

 

D :|*-----------------------------|----------------------------*3|

A :|*---8-----8-------12-------7--|---10-----10------5------7--*||

F :| -----------------------------|---------------------------- ||

C :| -----------------------------|---------------------------- ||

G :| /7---7-7---7-/10----10-5---5|/8----8-8----8-3---3-/5---5 ||

C :| -----------------------------|---------------------------- ||

 

D :|*-----------------------------|----------------------------*3|

A :|*-----------------------------|----------------------------*||

F :| -----------------------------|---------------------------- ||

C :| -----------------------------|---------------------------- ||

G :| -----------------------------|---------------------------- ||

C :| -----------------------------|---------------------------- ||

 

 

D :----7--------------|

A :---8---------------|

F :--9----------------|

C :-9-----------------|

G :7------------------|

C :-------------------|

 

D :----7--------------|

A :---8---------------|

F :--9----------------|

C :-9-----------------|

G :7------------------|

C :-------------------|

 

 

Return to my System of a Down tabs page

The Tablature is Copyright its respective owners.

Sign Up For My Newsletter
Subscribe | Unsubscribe

Site Map | Disclaimer | Privacy Policy | Media Kit | Submissions/Corrections

Website © 2000-2014 mattsmusicpage.com. All rights reserved.

Legal & DMCA: Matt's Music Page has been providing lyrics and tabs in a legal way, paying royalties each year to a few organizations. Then, all lyrics and tabs were removed from the site. Now, there's a new owner to the site, which purchased it August 26, 2014, and he is in negotiation to obtain licensing from BMI at the moment. If you have a specific DMCA request -- please do not hesitate to contact me via the contact button on top. I will do my very best to keep this site fully legal.

Get our toolbar!

 

G.H Elliot Music Hall Singer Vintage Hand Signed Autograph Album Page + Others
$1.52
G.H Elliot Music Hall Singer Vintage Hand Signed Autograph Album Page + Others picture


Henry Roy (Bandleader) + Band Multi Signed Vintage Autograph Album Page
$1.52
Henry Roy (Bandleader) + Band Multi Signed Vintage Autograph Album Page picture


Vintage 1917 March ALONG BROADWAY The Edison Musical Magazine Marie Kaiser
$18.99
Vintage 1917 March ALONG BROADWAY The Edison Musical Magazine  Marie Kaiser picture


Collectible Vintage Music Box Zebras On Top Of A Well Plays "Born Free" 4.5"
$5.0
Collectible Vintage Music Box Zebras On Top Of A Well Plays


Vtg Reuge Edelweiss Dr. Zhivago Bird’s Eye Maple Music Box (Size 236)
$95.0
Vtg Reuge Edelweiss Dr. Zhivago Bird’s Eye Maple Music Box (Size 236) picture