Your One-Stop Source For
Music Lyrics
Bass and Guitar Tabs
and More...
Music Lyrics Bass and Guitar Tabs

 

The Tabs Are Below

Learn To Read Tab
Chords Handbook
Corrections & Additions
Get Official Tab
SOAD tabs @ 911Tabs

System of a Down

The Side of the Freeway

tabbed by puppetz_85

http://go.to/tab_zone

 

For the new album, this is called Mr. Jack

 

Drop D down 1 step

For those of you that are stupid, that means you tune your whole guitar down a step,

and then drop the low string down another step, yielding a low C.

 

My aplologies to anyone who is so tone deaf that they can't get the song right

according to the tab. It's right, so get over it.

Look for more tabs from the unreleased album soon. If you think it's wrong,

go to ***ing hell. I didn't spend this much time to do a half-assed job.

 

 

Intro bass part (arr for guitar)

|-------------------------------------------|

|-------------------------------------------|

|-------------------------------------------|

|-------------------------------------------|

|---8p7---7p5---5---5-6-5---3---3---5---5-5-|

|-0-----0-----0---0-------0---0---0---0-----|

 

Intro (guitar w/ slight dist) 2x

|------------------------------------------------------------------|

|------------------------------------------------------------------|

|--12-11-11-11-11-11/14-14-14-14-14/16-16-16-16-16/19-19-21-21-19--|

|------------------------------------------------------------------|

|--10\-9--9--9--9--9/12-12-12-12-12/14-14-14-14-14/17-17-17-17-17--|

|------------------------------------------------------------------|

 

Heavy Riff (w/ dist)

|-----------------------------------------|

|-----------------------------------------|

|-----------------------------------------|

|-----------------------------------------|

|-0--7--\3--7-8-7-8-7--0--7--\3--7-8-7-8--|

|-0--7--\3--7-8-7-8-7--0--7--\3--7-8-7-8--|

 

Verse

p.m......................................

|-----------------------------------------|

|-----------------------------------------|

|-----------------------------------------|

|-----------------------------------------|

|-----------------------------------------|

|-0--7--\3--7-8-7-8-7--0--7--\3--7-8-7-8--|

 

Breakdown (play several times)

 

|---12---11---9---9--10\9---7---7---9---9--|

|------------------------------------------|

|---10---9----7---7--8\-7---5---5---7---7--|

|-0----0----0---0---------0---0---0---0----|

|------------------------------------------|

|------------------------------------------|

 

Bridge

|--------------------------------------------------|

|--------------------------------------------------|

|--------------------------------------------------|

|--------------------------------------------------|

|-0-0--7-7--\3-3--7-8-7-8---0-0--7-7--\3--7-8-7-8--|

|-0-0--7-7--\3-3--7-8-7-8---0-0--7-7--\3--7-8-7-8--|

 

Bridge pt 2

p.m...........................................

|----------------------------------------------|

|----------------------------------------------|

|----------------------------------------------|

|----------------------------------------------|

|-0-0-0-1-00--0000-0000---0-0-0-1-0--00-1-00-1-|

|-0-0-0-1-00--0000-0000---0-0-0-1-0--00-1-00-1-|

 

Bridge pt 3

p.m. ... ... ...

|----------------------------------------|

|----------------------------------------|

|----------------------------------------|

|----------------------------------------|

|-0-0-0-7---3-3-3-8----0-0-0-7---3-3-3-8-|

|-0-0-0-7---3-3-3-8----0-0-0-7---3-3-3-8-|

 

Bridge pt. 4

|----------------------------|

|----------------------------|

|----------------------------|

|----------------------------|

|--0--7\-3-/8----0--7\-3-/8--|

|--0--7\-3-/8----0--7\-3-/8--|

 

 

Return to my System of a Down tabs page

The Tablature is Copyright its respective owners.

Sign Up For My Newsletter
Subscribe | Unsubscribe

Site Map | Disclaimer | Privacy Policy | Media Kit | Submissions/Corrections

Website © 2000-2014 mattsmusicpage.com. All rights reserved.

Legal & DMCA: Matt's Music Page has been providing lyrics and tabs in a legal way, paying royalties each year to a few organizations. Then, all lyrics and tabs were removed from the site. Now, there's a new owner to the site, which purchased it August 26, 2014, and he is in negotiation to obtain licensing from BMI at the moment. If you have a specific DMCA request -- please do not hesitate to contact me via the contact button on top. I will do my very best to keep this site fully legal.

Get our toolbar!