Your One-Stop Source For
Music Lyrics
Bass and Guitar Tabs
and More...
Music Lyrics Bass and Guitar Tabs

 

The Tabs Are Below

Learn To Read Tab
Chords Handbook
Corrections & Additions
Get Official Tab
SOAD tabs @ 911Tabs

Artist: System Of A Down

Album: System Of A Down (1998)

Track: 9

Title: Mind

Instrument: Guitar

 

Tuning: CGCFAD (Drop D & Full Step Down)

 

 

Intro

 

|---------|-------------|-------------------|

|---------|-------------|-------------------|

|---------|---------12--|--11b12r=(11)------|

|---------|------10-----|--10-----(10)------|

|---------|-------------|-------------------|

|---------|-------------|-------------------|

 

|-------------|-------------|----------------------|

|-------------|-------------|----------------------|

|-(11)--------|-(11)--------|-(11)----(11)----12---|

|-(10)--------|-(10)--------|-(10)----(10)-10------|

|-------------|-------------|----------------------|

|-------------|-------------|----------------------|

 

|------------------|-------------|-----------------------|------------------|

|------------10----|-(10)--------|-----------10----------|------------------|

|------11-12-------|-------------|-----11-12----12-11----|--------------12--|

|---12-------------|-------------|--12----------------12-|-10------(10)-----|

|------------------|-------------|-----------------------|------------------|

|------------------|-------------|-----------------------|------------------|

 

|------------------------|--------------------|-------------|----------|

|------------------------|--------------------|-------------|----------|

|-11b12r=(11)----(11)----|--------------------|-------------|----------|

|---------------------12-|-10b10.5r=(10)------|-(10)--------|-(10)-----|

|------------------------|--------------------|-------------|----------|

|------------------------|--------------------|-------------|----------|

 

|------------------------|--------------------|

|------------------------|--------------------|

|-11b12r=(11)----(11)----|--------------------|

|---------------------12-|-10b10.5r=(10)------|

|------------------------|--------------------|

|------------------------|--------------------|

 

|-------------|-------------------|

|-------------|-------------------|

|-------------|-------------12----|

|-(10)--------|-(10)-----10----10-|

|-------------|-------------------|

|-------------|-------------------|

 

|------------------|-----------------------|-----------|-----------------------|

|------------------|-----------------------|-----------|-----------------------|

|-11b12r=(11)------|-(11)----(11)----12----|-11--------|-(11)----(11)----12----|

|-10-----(10)------|-(10)----(10)-10----10-|-10--------|-(10)----(10)-10----10-|

|------------------|-----------------------|-----------|-----------------------|

|------------------|-----------------------|-----------|-----------------------|

 

|---------------|-----------------------|

|---------------|-----------------------|

|-11------------|-----------------12----|

|-------12---10-|-(10)----(10)-10----10-|

|---------------|-----------------------|

|---------------|-----------------------|

 

PM---|

|---------------|-----------------------|

|---------------|-----------------------|

|-11------------|-----------------12----|

|-------12---10-|-(10)----(10)-10----10-|

|---------------|-----------------------|

|---------------|-----------------------|

 

 

PM--------------------------------------------|

|--------------------------|--------------------------|

|--------------------------|--------------------------|

|--11----12----11----12----|-11----12----11----12-----|

|-----10----10----10----10-|----10----10----10----10--|

|--------------------------|--------------------------|

|--------------------------|--------------------------|

 

PM--------|

|-------------------------|-------------------------|--------------------|

|-------------------------|-------------------------|--------------------|

|-11-11-12-11-11-11-12-11-|-11-11-12-12-12-12-12-12p|=11-----------------|

|-10-10-10-10-10-10-10-10-|-10-10-10-10-10-10-10-10-|--------3-2-0-3-2-0-|

|-------------------------|-------------------------|--------3-2-0-3-2-0-|

|-------------------------|-------------------------|--------3-2-0-3-2-0-|

 

PM--------| PM--------|

|-------------------|-------------------|--------|

|-------------------|-------------------|--------|

|-------------------|-------------------|--------|

|-0-0-0-3-2-0-3-2-0-|-0-0-0-3-2-0-3-2-0-|-0-0-0--|

|-0-0-0-3-2-0-3-2-0-|-0-0-0-3-2-0-3-2-0-|-0-0-0--|

|-0-0-0-3-2-0-3-2-0-|-0-0-0-3-2-0-3-2-0-|-0-0-0--|

 

 

Verse 1

 

PM----| PM--|

|-------------|--------------|------------|--------------|

|-------------|--------------|------------|--------------|

|-------------|--------------|------------|--------------|

|--0----1-3---|-0----3-2-1-1-|-0----1-3---|-0----3-2-1---|

|--0----1-3---|-0----3-2-1-1-|-0----1-3---|-0----3-2-1---|

|--0----1-3---|-0----3-2-1-1-|-0----1-3---|-0----3-2-1---|

 

 

|------------|-----------|-----------|------------|

|------------|-12~-------|-----------|-12~--------|

|--12~-------|-----------|-12~-------|------------|

|------------|-----------|-----------|------------|

|------------|-----------|-----------|------------|

|------------|-----------|-----------|------------|

 

 

|-----------10-------|-------10--------|-10--------10--|-------10------|

|-13b14=========13r--|-(13)------13----|-----13--------|-13--------13--|

|--------------------|-----------------|---------------|---------------|

|--------------------|-----------------|---------------|---------------|

|--------------------|-----------------|---------------|---------------|

|--------------------|-----------------|---------------|---------------|

 

 

Pre-Chorus 1

 

PM----| PM--|

|-------------|--------------|------------|---------------|

|-------------|--------------|------------|---------------|

|-------------|--------------|------------|---------------|

|--0----1-3---|-0----3-2-1-1-|-0----1-3---|-0----3-2-1----|

|--0----1-3---|-0----3-2-1-1-|-0----1-3---|-0----3-2-1----|

|--0----1-3---|-0----3-2-1-1-|-0----1-3---|-0----3-2-1----|

 

|--------|

|--------|

|--------|

|-(1)----|

|-(1)----|

|-(1)----|

 

 

Chorus 1

 

PM--------------------| PM--------------------|

|------------------------------|-------------------------------|

|------------------------------|-------------------------------|

|------------------------------|-------------------------------|

|--0-0-0-3-0-0-6-0-0-3-0-0-6-6-|-0-0-0-3-0-0-6-0-0-3-0-0-6-6---|

|--0-0-0-3-0-0-6-0-0-3-0-0-6-6-|-0-0-0-3-0-0-6-0-0-3-0-0-6-6---|

|--0-0-0-3-0-0-6-0-0-3-0-0-6-6-|-0-0-0-3-0-0-6-0-0-3-0-0-6-6---|

 

 

Interlude 1

 

|----------|------------|---------------------------|

|----------|------------|---------------------------|

|----------|------------|---------------------------|

|-6--------|-(6)--------|--7-6-7-(7)-6-7-6-7-6-7-7--|

|-6--------|-(6)--------|--7-6-7-(7)-6-7-6-7-6-7-7--|

|-6--------|-(6)--------|--7-6-7-(7)-6-7-6-7-6-7-7--|

 

PM--------| PM--------| PM--------| PM--------|

|-------------|-------------------|-------------------|--------------------|

|-------------|-------------------|-------------------|--------------------|

|-------------|-------------------|-------------------|--------------------|

|-3-2-0-3-2-0-|-0-0-0-3-2-0-3-2-0-|-0-0-0-3-2-0-3-2-0-|-0-0-0-3-2-0-3-2-0--|

|-3-2-0-3-2-0-|-0-0-0-3-2-0-3-2-0-|-0-0-0-3-2-0-3-2-0-|-0-0-0-3-2-0-3-2-0--|

|-3-2-0-3-2-0-|-0-0-0-3-2-0-3-2-0-|-0-0-0-3-2-0-3-2-0-|-0-0-0-3-2-0-3-2-0--|

 

 

Verse 2

PM----| PM--|

|--------|-------------|--------------|------------|----------------|

|--------|-------------|--------------|------------|----------------|

|--------|-------------|--------------|------------|----------------|

|-0-0-0--|--0----1-3---|-0----3-2-1-1-|-0----1-3---|-0----3-2-1-----|

|-0-0-0--|--0----1-3---|-0----3-2-1-1-|-0----1-3---|-0----3-2-1-----|

|-0-0-0--|--0----1-3---|-0----3-2-1-1-|-0----1-3---|-0----3-2-1-----|

 

|--------------|-------------|-------------|---------------|

|--------------|-12----12----|-------------|-12----12------|

|--12----12----|-------------|-12----12----|---------------|

|--------------|-------------|-------------|---------------|

|--------------|-------------|-------------|---------------|

|--------------|-------------|-------------|---------------|

 

|-----------------|-----------------|------------------|

|-12p=10h=12p=10h=|=12p=10h=12p=10h=|=12p=10h=12p=10h==|

|-----------------|-----------------|------------------|

|-----------------|-----------------|------------------|

|-----------------|-----------------|------------------|

|-----------------|-----------------|------------------|

 

|-------------------------------------------------|

|-12p10h12p10h12p10h12p10h12p10h12p10h12p10h12p10h|

|-------------------------------------------------|

|-------------------------------------------------|

|-------------------------------------------------|

|-------------------------------------------------|

 

|-------------------------------------------------|

|-12p10h12p10h12p10h12p10h12p10h12p10h12p10h12p10-|

|-------------------------------------------------|

|-------------------------------------------------|

|-------------------------------------------------|

|-------------------------------------------------|

 

 

Pre-Chorus 2

PM----| PM--|

|-------------|--------------|------------|---------------|

|-------------|--------------|------------|---------------|

|-------------|--------------|------------|---------------|

|--0----1-3---|-0----3-2-1-1-|-0----1-3---|-0----3-2-1----|

|--0----1-3---|-0----3-2-1-1-|-0----1-3---|-0----3-2-1----|

|--0----1-3---|-0----3-2-1-1-|-0----1-3---|-0----3-2-1----|

 

|--------|

|--------|

|--------|

|-(1)----|

|-(1)----|

|-(1)----|

 

 

Chorus 2

 

PM--------------------| PM--------------------|

|------------------------------|-------------------------------|

|------------------------------|-------------------------------|

|------------------------------|-------------------------------|

|--0-0-0-3-0-0-6-0-0-3-0-0-6-6-|-0-0-0-3-0-0-6-0-0-3-0-0-6-6---|

|--0-0-0-3-0-0-6-0-0-3-0-0-6-6-|-0-0-0-3-0-0-6-0-0-3-0-0-6-6---|

|--0-0-0-3-0-0-6-0-0-3-0-0-6-6-|-0-0-0-3-0-0-6-0-0-3-0-0-6-6---|

 

 

Interlude 2

 

|----------|------------|---------------------------|

|----------|------------|---------------------------|

|----------|------------|---------------------------|

|-6--------|-(6)--------|--7-6-7-(7)-6-7-6-7-6-7-7--|

|-6--------|-(6)--------|--7-6-7-(7)-6-7-6-7-6-7-7--|

|-6--------|-(6)--------|--7-6-7-(7)-6-7-6-7-6-7-7--|

 

PM------------------------------------------------------------------------|

|-------------------------|-------------------------|-------------------------|

|-------------------------|-------------------------|-------------------------|

|-------------------------|-------------------------|-------------------------|

|-------------------------|-------------------------|-------------------------|

|-------------------------|-------------------------|-------------------------|

|-7-6-7-(7)-6-7-6-7-6-7-7-|-7-6-7-(7)-6-7-6-7-6-7-7-|-7-6-7-(7)-6-7-6-7-6-7-7-|

 

PM--------------------------------------------------|

|-------------------------|-----------------|----------------|

|-------------------------|-----------------|----------------|

|-------------------------|-----------------|----------------|

|-------------------------|-----------------|----------------|

|-------------------------|-----------------|----------------|

|-7-6-7-(7)-6-7-6-7-6-7-6-|-7-6-7-6-7-6-7-6-|-7-6-7-6-(6)----|

 

|-------------------------|------------------------|

|-------------------------|------------------------|

|-------------------------|------------------------|

|-7-6-7-(7)-6-7-6-7-6-7-7-|-7-6-7-(7)-6-7-6-7-6-7--|

|-7-6-7-(7)-6-7-6-7-6-7-7-|-7-6-7-(7)-6-7-6-7-6-7--|

|-7-6-7-(7)-6-7-6-7-6-7-7-|-7-6-7-(7)-6-7-6-7-6-7--|

 

 

Outro

 

|--------------------------|--------------------------|

|--------------------------|--------------------------|

|--------------------------|--------------------------|

|--7-6-7-(7)-6-7-6-7-6-7-7-|-7-6-7-(7)-6-7-6-7-6-7-7--|

|--7-6-7-(7)-6-7-6-7-6-7-7-|-7-6-7-(7)-6-7-6-7-6-7-7--|

|--7-6-7-(7)-6-7-6-7-6-7-7-|-7-6-7-(7)-6-7-6-7-6-7-7--|

 

PM----------------------|

|----------|------------|--------|

|----------|------------|--------|

|----------|------------|--------|

|-0--------|-(0)--------|-(0)----|

|-0--------|-(0)--------|-(0)----|

|-0--------|-(0)--------|-(0)----|

 

|-------------|-----------|------------|------------|--------------|

|-------------|-----------|------------|------------|--------------|

|-------------|-----------|------------|------------|--------------|

|-------------|-----------|------------|------------|--------------|

|-5--5--4--4--|--3--------|-(3)--------|-(3)--------|-5--5--4--4---|

|-------------|--0--------|-(0)--------|-(0)--------|--------------|

 

|----------|---------|

|----------|---------|

|----------|---------|

|----------|---------|

|-3--------|-(3)-----|

|-0--------|-(0)-----|

 

 

 

Return to my System of a Down tabs page

The Tablature is Copyright its respective owners.

Sign Up For My Newsletter
Subscribe | Unsubscribe

Site Map | Disclaimer | Privacy Policy | Media Kit | Submissions/Corrections

Website © 2000-2014 mattsmusicpage.com. All rights reserved.

Legal & DMCA: Matt's Music Page has been providing lyrics and tabs in a legal way, paying royalties each year to a few organizations. Then, all lyrics and tabs were removed from the site. Now, there's a new owner to the site, which purchased it August 26, 2014, and he is in negotiation to obtain licensing from BMI at the moment. If you have a specific DMCA request -- please do not hesitate to contact me via the contact button on top. I will do my very best to keep this site fully legal.

Get our toolbar!

 

1939 LYRIC THEATRE New York PHOTO
$5.83
1939 LYRIC THEATRE New York PHOTO picture


Star Spangled Banner or Marines Hymn lyrics signed by WWII Charles W. Lindberg
$10.0
Star Spangled Banner or Marines Hymn lyrics signed by WWII Charles W. Lindberg picture


OLD LARGE HISTORIC PHOTO OF THE LYRIC THEATRE, SYDNEY c1930s, WAR BONDS BOOTH
$7.42
OLD LARGE HISTORIC PHOTO OF THE LYRIC THEATRE, SYDNEY c1930s, WAR BONDS BOOTH picture


SONG OF REVOLUTION CARD SET WITH 13 MOST FAVORED COMMUNIST SONGS LYRICS + NOTES
$24.99
SONG OF REVOLUTION CARD SET WITH 13 MOST FAVORED COMMUNIST SONGS LYRICS + NOTES picture


OLD LARGE HISTORIC PHOTO OF THE LYRIC THEATRE, SYDNEY c1930s, WAR LOANS BOOTH
$7.42
OLD LARGE HISTORIC PHOTO OF THE LYRIC THEATRE, SYDNEY c1930s, WAR LOANS BOOTH picture