Your One-Stop Source For
Music Lyrics
Bass and Guitar Tabs
and More...
Music Lyrics Bass and Guitar Tabs

 

The Tabs Are Below

Learn To Read Tab
Chords Handbook
Corrections & Additions
Get Official Tab
SOAD tabs @ 911Tabs

Know

By System of a Down

 

Back To Main

Back To Tabs

 

From The Gauntlet, http://www.thegauntlet.com/

 

Tune to Drop D then down a step

 

Intro

~~~~~

F----------------

A----------------

D---------------- Play 3 times

C----------------

G--0--8-8--7-8-8-

C--0--8-8--7-8-8-

 

Verse 1

~~~~~~~

F----------------

A----------------

D---------------- Play 8 times

C----------------

G--0--8-8--0-4-4-

C--0--8-8--0-4-4-

 

Verse 2

~~~~~~~

F--8-8--8-8-8-8-

A--x-x--x-x-x-x-

D--x-x--x-x-x-x- Play 4 times

C--x-x--x-x-x-x-

G--0-0--0-0-0-0-

C--0-0--0-0-0-0-

 

Verse 3

~~~~~~~

F--------------

A--------------

D-------------- Play 8 times

C--------------

G--0-0--0-0--3-

C--0-0--0-0--3-

 

Verse 4

~~~~~~~

F-----------------

A----------------- Play 16 times

D----------------- and dampen all the

C----------------- strings being played after

G--0-0--0-0-0-3-3- after each note

C--0-0--0-0-0-3-3-

 

Verse 5

~~~~~~~

F--------------------------------------

A-------------------------------------- Play three times

D-------------------------------------- and on the 3rd,

C-------------------------------------- instead of palm

G--0--2-3--3-3-3-3-3----0--2-3-x-x-x-x- muting, don't play

C--0--2-3--3-3-3-3-3----0--2-3-x-x-x-x-

 

After this go to Verse 3

then 4 and back here

 

Verse 6

~~~~~~~

F-------------

A-------------

D------------- Play 10 times

C-------------

G--2--2-2-2-2-

C--2--2-2-2-2-

 

Verse 7

~~~~~~~

F--------------

A------------8-

D-------------- Play 4 times

C--10----------

G---8----------

C--------------

 

Verse 8

~~~~~~~

F---------------------------

A---------------------------

D--------------------------- Dampen Strings here and

C--------------------------- play 2 times, then

G--0-0--0-0--0-0--0-0--0--0- go to Verse 9

C--0-0--0-0--0-0--0-0--0--0-

 

Verse 9

~~~~~~~

F---------------------------

A--------------------------- Play 2 times, go back to

D--------------------------- Verse 8 and do the same

C--------------------------- thing for a while, then

G--3-3--3-3--3-3--3-3--3--3- go to Verse 5

C--3-3--3-3--3-3--3-3--3--3-

 

Return to my System of a Down tabs page

The Tablature is Copyright its respective owners.

Sign Up For My Newsletter
Subscribe | Unsubscribe

Site Map | Disclaimer | Privacy Policy | Media Kit | Submissions/Corrections

Website © 2000-2014 mattsmusicpage.com. All rights reserved.

Legal & DMCA: Matt's Music Page has been providing lyrics and tabs in a legal way, paying royalties each year to a few organizations. Then, all lyrics and tabs were removed from the site. Now, there's a new owner to the site, which purchased it August 26, 2014, and he is in negotiation to obtain licensing from BMI at the moment. If you have a specific DMCA request -- please do not hesitate to contact me via the contact button on top. I will do my very best to keep this site fully legal.

Get our toolbar!