Your One-Stop Source For
Music Lyrics
Bass and Guitar Tabs
and More...
Music Lyrics Bass and Guitar Tabs

 

The Tabs Are Below

Learn To Read Tab
Chords Handbook
Corrections & Additions
Get Official Tab
SOAD tabs @ 911Tabs

ragesystemnirvanametallica (Saif Mehdi)

System Of A Down

Steal This Album!

Highway Song

CGCFAD

This tab is perfect...i don't know who the hell made it a 4...i hate seeing that rating next to my tab.

 

Intro

|-----

|-----

|-----

|-----

|-0-0-

|-0-0-

p.m..

 

Riff 1

|-----------------

|-----------------

|-----------------

|-----------------

|-0-0-7-7/-0-0-7/-

|-0-0-7-7/-0-0-7/-

p.m...............

 

Verse

|-5-------4--------------------

|-6-------5-------2-------5----

|-7-------6-------2-------5----

|-----------------2-------5----

|-----------------0-------3----

|------------------------------

 

|----------------------------------------4----------------------------

|-6-----8-----6-----5---------------5--------5--------------2------5--

|---7-----7-----7-----6-------13-------6---------6----------2------5--

|-----7-----7-----7-----6--12-11----------------------6-----2------5--

|-----------------------------------------------------------0------3--

|---------------------------------------------------------------------

-

Chorus

|------------------------------------------------------------------------

|------------------------------------------------------------------------

|------------------------------------------------------------------------

|-0-7-8-70-077-8-7----6-7-6---66-7-6----------------------5-6-5---55-6-5-

|-------------------4------4-4--------0-7-8-70-077-8-7--3------3-3-------

|------------------------------------------------------------------------

p.m......................................................................

(Repeat the first three segments once more and then instead of what's exactly

above "instead of what's exactly" do this:

 

|---------

|---------

|-5-5-5-5-

|-5-5-5-5-

|-3-3-3-3-

|---------

 

Interlude/Solo

|--------------------------------------------------

|-----15-17----15----17-15-----15-17----15----17-15

|-14--------14----14--------13-------13----13------

|--------------------------------------------------

|--------------------------------------------------

|--------------------------------------------------

 

|-------------------------------------------------

|----18-17----18----18-17-----18-17----18----18-17

|-15-------15----15--------14-------14----14------

|-------------------------------------------------

|-------------------------------------------------

|-------------------------------------------------

 

Interlude 2

|----------------

|----------------

|----------------

|----------------

|----------------

|-0---11---7---10

 

 

Return to my System of a Down tabs page

The Tablature is Copyright its respective owners.

Sign Up For My Newsletter
Subscribe | Unsubscribe

Site Map | Disclaimer | Privacy Policy | Media Kit | Submissions/Corrections

Website © 2000-2014 mattsmusicpage.com. All rights reserved.

Legal & DMCA: Matt's Music Page has been providing lyrics and tabs in a legal way, paying royalties each year to a few organizations. Then, all lyrics and tabs were removed from the site. Now, there's a new owner to the site, which purchased it August 26, 2014, and he is in negotiation to obtain licensing from BMI at the moment. If you have a specific DMCA request -- please do not hesitate to contact me via the contact button on top. I will do my very best to keep this site fully legal.

Get our toolbar!