Your One-Stop Source For
Music Lyrics
Bass and Guitar Tabs
and More...
Music Lyrics Bass and Guitar Tabs

 

The Tabs Are Below

Learn To Read Tab
Chords Handbook
Corrections & Additions
Get Official Tab
SOAD tabs @ 911Tabs

System Of A Down - Goodbye Blue Sky. (pink Floyd Cover)

Tabbed By: Dean Kozlowski

EMail: gunguy1981@hotmail.com

 

 

There is already this tab online but its wrong so i took the time out

make this one for all you crazy system fans.

 

tuneing. drop guitar down one whole step and then the top string down

two.(( c,g,c,f,a,d.))

 

|------------------------------------------------------------------|

|------------------------------------------------------------------|

|--------0--------------0-------------0-------0-------0-------0----|

|----4------4---4---4-----4---4-----4---4---4---4---4---4---4---4--|

|--5---5------5---5---5-----5-----2-------2-------2-------2--------|

|------------------------------------------------------------------|

 

^ play the above riff twice ^

 

|--------------------------------------------------------------------|

|--------------------------------------------------------------------|

|-------5-5---5--5-5-------5-5---5--5-5------5-5---5--5-5----4--5--6-|

|--------------------------------------------------------------------|

|--0-0------0---------0-0------0---------0-0------0------------------|

|--------------------------------------------------------------------|

 

^ after this riff go back to the start and then daron sings ^

 

 

 

ooooohhh ooooohhh ooooohh ooooh

ooooohhh ooooohhh ooooohh ooooh

 

^ sing this though the first part of the song. ^

 

then play the second little riff.

 

go back to the start and sing this.

 

goodbye, blue sky. goodbye blue._ sky goodbye....

goodbye, blue sky. goodbye blue._ sky goodbye....

 

i'm sure that this is spot on so have a go and email with any

problems.

peace out ya'll..

 

 

Return to my System of a Down tabs page

The Tablature is Copyright its respective owners.

Sign Up For My Newsletter
Subscribe | Unsubscribe

Site Map | Disclaimer | Privacy Policy | Media Kit | Submissions/Corrections

Website © 2000-2014 mattsmusicpage.com. All rights reserved.

Legal & DMCA: Matt's Music Page has been providing lyrics and tabs in a legal way, paying royalties each year to a few organizations. Then, all lyrics and tabs were removed from the site. Now, there's a new owner to the site, which purchased it August 26, 2014, and he is in negotiation to obtain licensing from BMI at the moment. If you have a specific DMCA request -- please do not hesitate to contact me via the contact button on top. I will do my very best to keep this site fully legal.

Get our toolbar!

 

VINTAGE SORRENTO MUSIC JEWELRY BOX
$45.0
VINTAGE SORRENTO MUSIC JEWELRY BOX picture


VINTAGE LACQUERED MUSIC BOX JAPAN
$25.99
VINTAGE LACQUERED MUSIC BOX JAPAN picture


Vintage Kehlsteinhaus Bavaria Germany Colorscope Cow Bell View Master Music Box
$8.99
Vintage Kehlsteinhaus Bavaria Germany Colorscope Cow Bell View Master Music Box picture


VINTAGE SCHMIDT Signed Collectible Musical Turning Clown
$9.99
VINTAGE  SCHMIDT Signed Collectible Musical Turning Clown picture


Vintage - Linen - Postcard - Stage - Radio City Music Hall - New York City
$3.75
Vintage - Linen - Postcard - Stage - Radio City Music Hall - New York City   picture