Your One-Stop Source For
Music Lyrics
Bass and Guitar Tabs
and More...
Music Lyrics Bass and Guitar Tabs

 

The Tabs Are Below

Learn To Read Tab
Chords Handbook
Corrections & Additions
Get Official Tab
SOAD tabs @ 911Tabs

Song: Innervision

Artist: System of a Down

Drummer: John Dolmayan

Tabber: 3DDi

 

C |x---------------|----------------|----------------|----------------|

H |--X-X-X-X-X-X-X-|X-X-X-X-X-X-X-X-|X-X-X-X-X-X-X-X-|X-X-X-X-X-------|

t |----------------|----------------|----------------|-----------000--|

S |----0----0--0--0|----0----0--0--0|----0----0--0--0|----0---0-0---0-|

B |0--0--0----0-0--|0--0--0----0-0--|0--0--0----0-0--|0--0--00--------|

 

C |x---------------|----------------|x---------------|----------------|

H |----------------|----------------|--x-x-x-x-x-x-x-|x-x-x-x-x-x-x-x-|

S |----------------|--------------0-|----0----0--0---|----0----0--0---|

B |0---------------|----------------|0--0--0----0-0--|0--0--0----0-0--|

 

C |----------------|----------------|x---------------|----------------|

H |x-x-x-x-x-x-x-x-|x-x-x-x-x-x-x-x-|--x-x-x-x-x-x-x-|x-x-x-x-x-x-x-x-|

S |----0----0--0---|----0----0--0---|----0----0--0---|----0----0--0---|

B |0--0--0----0-0--|0--0--0----0-0--|0--0--0----0-0--|0--0--0----0-0--|

 

|<<<<<<<<<<< crescendo <<<<<<<<<<<|

 

C |----------------|----------------|----------------|----------------|

H |x-x-x-x-x-x-x-x-|x-x-x-x-x-------|X-X-X-X-X-X-X-X-|X-X-X-X-X-X-X-X-|

f |----------------|----------0000--|----------------|----------------|

S |----0----0--0---|----0---0-----0-|----------------|----0-0-0-0-0-0-|

B |0--0--0----0-0--|0--0--00--------|0-0-0-0-0-0-0-0-|0-0-0-0-0-0-0-0-|

 

C |x---------------|----------------|x---------------|----------------|

H |--X-X-X-X-X-X-X-|X-X-X-X-X-X-X-X-|--X-X-X-X-X-X-X-|X-X-X-X-X-X-X-X-|

S |0--0--0--0--0---|0--0--0--0--0---|----0----0--0---|----0----0--0---|

B |-00-00-00-00--0-|-00-00-00-00--0-|0--0--0----0--0-|0--0--0----0--0-|

 

C |x---------------|----------------|x---------------|----------------|

H |----------------|----------------|--x-x-x-x-x-x-x-|x-x-x-x-x-x-x-x-|

S |----------------|--------------0-|----0----0--0---|----0----0--0---|

B |0---------------|----------------|0--0--0----0-0--|0--0--0----0-0--|

 

C |----------------|----------------|----------------|----------------|

H |x-x-x-x-x-x-x-x-|x-x-x-x-x-x-x-x-|x-x-x-x-x-x-x-x-|x-x-x-x-x-x-x-x-|

S |----0----0--0---|----0----0--0---|----0----0--0---|----0----0--0---|

B |0--0--0----0-0--|0--0--0----0-0--|0--0--0----0-0--|0--0--0----0-0--|

 

|<<<<<<<<<<< crescendo <<<<<<<<<<<|

 

C |----------------|----------------|----------------|----------------|

H |x-x-x-x-x-x-x-x-|x-x-x-x-x-------|X-X-X-X-X-X-X-X-|X-X-X-X-X-X-X-X-|

t |----------------|-----------000--|----------------|----------------|

S |----0----0--0---|----0---0-0---0-|----------------|0-0-0-0-0-0-0-0-|

B |0--0--0----0-0--|0--0--00--------|0-0-0-0-0-0-0-0-|0-0-0-0-0-0-0-0-|

 

C |x---------------|----------------|x---------------|----------------|

H |--X-X-X-X-X-X-X-|X-X-X-X-X-X-X-X-|--X-X-X-X-X-X-X-|X-X-X-X-X-X-X-X-|

S |0--0--0--0--0---|0--0--0--0--0---|----0----0--0---|----0----0--0---|

B |-00-00-00-00--0-|-00-00-00-00--0-|0--0--0----0--0-|0--0--0----0--0-|

 

C |----------------|----------------|x---------------|----------------|

H |X-X-X-X-X-X-X-X-|X-X-X-X-X-X-X-X-|--X-X-X-X-X-X-X-|X-X-X-X-X-X-X-X-|

S |0--0--0--0--0---|0--0--0--0--0---|----0----0--0---|----0----0--0---|

B |-00-00-00-00--0-|-00-00-00-00--0-|0--0--0----0--0-|0--0--0----0--0-|

 

C |----------------|----------------|x--x--x--x--x-x-|x-x-x-x-x-------|

H |X-X-X-X-X-X-X-X-|X-X-X-X-X-X-X-X-|----------------|----------------|

S |0--0--0--0--0---|0--0--0--0--0---|----------------|---------0000000|

B |-00-00-00-00--0-|-00-00-00-00--0-|0--0--0--0--0-0-|0-0-0-0-0-------|

 

C |x-----x---------|----------------|x--x--x--x--x-x-|x-x-x-x-x-------|

H |--X-X---X-X-X-X-|X-X-X-X-X-X-X-X-|----------------|----------------|

S |----0----0--0---|0--0--0--0--0---|----------------|---------0000000|

B |0--0--0----0-0--|-00-00-00-00--0-|0--0--0--0--0-0-|0-0-0-0-0-------|

 

C |x-----x---------|----------------|x--x--x--x--x-x-|x-x-x-x-x-------|

H |--X-X---X-X-X-X-|X-X-X-X-X-X-X-X-|----------------|----------------|

S |----0----0--0---|0--0--0--0--0---|----------------|---------0000000|

B |0--0--0----0-0--|-00-00-00-00--0-|0--0--0--0--0-0-|0-0-0-0-0-------|

 

C |x-----x---------|----------------|x---------------|----------------|

H |--X-X---X-X-X-X-|X-X-X-X-X-X-X-X-|----------------|----------------|

S |----0----0--0---|0--0--0--0--0---|----------------|----------------|

B |0--0--0----0-0--|-00-00-00-00--0-|0---------------|----------------|

 

This part you play with percussion. If you have no drums for that use my

way on the toms. It's not perfect but it sounds well. :)

 

t |----------------|----------------|---0--0----0-0--|---0--0----0-0--|

T |----------------|----------------|----0-------0-0-|----0-------0-0-|

f |----------------|----------------|00------00------|00------00------|

S |----------------|----------------|----------------|----------------|

B |----------------|----------------|0---0---0---0---|0---0---0---0---|

 

C |----------------|----------------|x---------------|----------------|

R |----------------|----------------|--x-x-x-x-x-x-x-|x-x-x-x-x-x-x-x-|

t |---0--0----0-0--|---0---0---0-0-0|----------------|----------------|

T |----0-------0-0-|----0-0-----0-0-|----------------|----------------|

f |00------00------|00------00------|----------------|----------------|

S |----------------|----------------|----0-------0---|----0-------0---|

B |0---0---0---0---|0---0---0---0---|0--0--0----0-0--|0--0--0----0-0--|

 

R |x-x-x-x-x-x-x-x-|x-x-x-x-x-x-x-x-|x-x-x-x-x-x-x-x-|x-x-x-x-x-x-x-x-|

t |----------------|----------------|----------------|----------0-----|

T |----------------|----------------|----------------|-----------0----|

S |----0-------0---|----0-------0---|----0-------0---|----0---0-----0-|

B |0--0--0----0-0--|0--0--0----0-0--|0--0--0----0-0--|0--0--00-----0--|

 

C |x---------------|----------------|----------------|----------------|

B |0---------------|----------------|----------------|----------------|

 

C |x---------------|----------------|----------------|----------------|

H |--X-X-X-X-X-X-X-|X-X-X-X-X-X-X-X-|X-X-X-X-X-X-X-X-|X-X-X-X-X-X-----|

S |----0----0--0---|----0----0--0---|----0----0--0---|----0----0-0000-|

B |0--0--0----0--0-|0--0--0----0--0-|0--0--0----0--0-|0--0--0---------|

 

 

Return to my System of a Down drum tabs page

The Tablature is Copyright its respective owners.

Sign Up For My Newsletter
Subscribe | Unsubscribe

Site Map | Disclaimer | Privacy Policy | Media Kit | Submissions/Corrections

Website © 2000-2014 mattsmusicpage.com. All rights reserved.

Legal & DMCA: Matt's Music Page has been providing lyrics and tabs in a legal way, paying royalties each year to a few organizations. Then, all lyrics and tabs were removed from the site. Now, there's a new owner to the site, which purchased it August 26, 2014, and he is in negotiation to obtain licensing from BMI at the moment. If you have a specific DMCA request -- please do not hesitate to contact me via the contact button on top. I will do my very best to keep this site fully legal.

Get our toolbar!