Your One-Stop Source For
Music Lyrics
Bass and Guitar Tabs
and More...
Music Lyrics Bass and Guitar Tabs

 

The Tabs Are Below

Learn To Read Tab
Chords Handbook
Corrections & Additions
Get Official Tab
SOAD tabs @ 911Tabs

Song: Forest

Band: System Of A Down

Drummer: John Domyalan

Album: Toxicity

Tabbed By: Chuck (xfalloutdrummerx@hotmail.com)

 

I'm not sure if this tab is 100% right....... this is how i play this with my band.

 

Key:

t1 - High Timbale

t2 - Low Timbale

ht - high tom

|--3--| - triplet (the two triplets in a measure is still in 4/4)

 

S |--------------o-|

 

|---repeat-7x----|

t1|-------do-------|

t2|----------o-----|

S |--------------o-|

B |o---o---o---o---|

 

|---repeat-2x----|

C |X---------------|----------------|

H |----X---X---X---|X---X---X---X---|

S |----o-------o---|----o-------o---|

B |o--o--o-o--o--o-|o--o--o-o--o--o-|

 

|---repeat-3x----|

C |X---X---X---X---|

S |----o-------o---|

B |o--o--o-o--o--o-|

 

|--------------------r-e-p-e-a-t-----------2-x----------------------|

C |----------------|----------------|X---------------|----------------|

H |x-xgx-X-x-xgX---|x-xgx-X-x-xgX---|----X---X---X---|X---X---X---X---|

S |------------o---|------------o---|----o-------o---|----o-------o---|

B |o---o---o---o---|o---o---o---o---|o--o--o-o--o--o-|o--o--o-o--o--o-|

 

|---repeat-2x----|

H |x-X-x-X-x-X-x-X-|x-X-x-X-x-X-x-X-|

S |----------------|--------------o-|

B |o---o---o---o---|o---o---o---o---|

 

|---repeat-2x----||--3--|--|--3--|

C |----------------|X--X--X--X--X--X--|

H |x-X-x-X-x-X-x-X-|------------------|

S |----o--o----o---|o--o--o--o--o--o--|

B |o---o---o---o---|o--o--o--o--o--o--|

 

|--3--|--|--3--|

C |X---X-----------|X---------------|X---------------|X--X--X--X--X--X--|

H |--------X---X---|----X---X---X---|----X---X---X---|------------------|

S |--------o-------|--------o-------|--------o-------|---------o--o-----|

B |o---o---------o-|o-------------o-|o---o-----------|o--o--o--o--o--o--|

 

|--3--|--|--3--|

C |X---X-----------|X---------------|X---------------|X--X--X--X--X--X--|

H |--------X---X---|----X---X---X---|----X---X---X---|------------------|

S |--------o-------|--------o-------|--------o-------|---------o--o-----|

B |o---o---------o-|o---o---------o-|o---o-----------|o--o--o--o--o--o--|

 

|--3--|--|--3--|

C |X---X-----------|X---------------|X---------------|X--X--X--X--X--X--|

H |--------X---X---|----X---X---X---|----X---X---X---|------------------|

S |--------o-------|--------o--g----|--------o-------|---------o--o--o--|

B |o---o---------o-|o---o---------o-|o---------------|o--o--o--o--o--o--|

 

 

|--3--|--|--3--|

C |X---X-----------|X---------------|X---------------|X--X--X-----------|

H |--------X---X---|----X---X---X---|----X---X---X---|---------X--X--X--|

S |--------o-------|--------o-------|--------o-------|---------o--o--o--|

B |o---o---------o-|o---o---------o-|o---o-----------|o--o--o--o--o--o--|

 

|---repeat-2x----|

C |X---------------|----------------|

H |----X---X---X---|X---X---X---X---|

S |----o-------o---|----o-------o---|

B |o--o--o-o--o--o-|o--o--o-o--o--o-|

 

 

|--------------------r-e-p-e-a-t-----------2-x----------------------|

C |----------------|----------------|X---------------|----------------|

H |x-xgx-X-x-xgX---|x-xgx-X-x-xgX---|----X---X---X---|X---X---X---X---|

S |------------o---|------------o---|----o-------o---|----o-------o---|

B |o---o---o---o---|o---o---o---o---|o--o--o-o--o--o-|o--o--o-o--o--o-|

 

|---repeat-2x----|

H |x-X-x-X-x-X-x-X-|x-X-x-X-x-X-x-X-|

S |----------------|--------------o-|

B |o---o---o---o---|o---o---o---o---|

 

|---repeat-2x----||--3--|--|--3--|

C |----------------|X--X--X--X--X--X--|

H |x-X-x-X-x-X-x-X-|------------------|

S |----o--o----o---|o--o--o--o--o-----|

B |o---o---o---o---|o--o--o--o--o--o--|

 

|--3--|--|--3--|

C |X---X-----------|X---------------|X---------------|X--X--X--X--X--X--|

H |--------X---X---|----X---X---X---|----X---X---X---|------------------|

S |--------o-------|--------o-------|--------o-------|---------o--o-----|

B |o---o---------o-|o-------------o-|o---o-----------|o--o--o--o--o--o--|

 

|--3--|--|--3--|

C |X---X-----------|X---------------|X---------------|X--X--X--X--X--X--|

H |--------X---X---|----X---X---X---|----X---X---X---|------------------|

S |--------o-------|--------o-------|--------o-------|---------o--o-----|

B |o---o---------o-|o---o---------o-|o---o-----------|o--o--o--o--o--o--|

 

|--3--|--|--3--|

C |X---X-----------|X---------------|X---------------|X--X--X--X--X--X--|

H |--------X---X---|----X---X---X---|----X---X---X---|------------------|

S |--------o-------|--------o--g----|--------o-------|---------o--o-----|

B |o---o---------o-|o---o---------o-|o---o-----------|o--o--o--o--o--o--|

 

 

|--3--|--|--3--|

C |X---X-----------|X---------------|X---------------|X--X--X-----------|

H |--------X---X---|----X---X---X---|----X---X---X---|---------X--X--X--|

S |--------o-------|--------o-------|--------o-------|---------o--o--o--|

B |o---o---------o-|o---o---------o-|o---o-----------|o--o--o--o--o--o--|

 

|--3--|--|--3--| |--3--|--|--3--|

C |X--X--X-----------|X--X--X-----------|

H |---------X--X--X--|---------X--X--X--|

S |---------o--o--o--|---------o--o--o--|

B |o--o--o--o--o--o--|o--o--o--o--o--o--|

 

|---repeat-2x----|

C |X---------------|----------------|

H |----X---X---X---|X---X---X---X---|

S |----o-------o---|----o-------o---|

B |o--o--o-o--o--o-|o--o--o-o--o--o-|

 

|--3--|--|--3--| |--3--|--|--3--|

C |X--------X--------|X--------X--------|

H |---X--X-----X--X--|---X--X-----X--X--|

S |o--------o--------|o--------o--------|

B |o--o--o--o--o--o--|o--o--o--o--o--o--|

 

C |X---------------|----------------|

H |----X---X---X---|X---X---X---X---|

S |----o-------o---|----o-------o---|

B |o--o--o-o--o--o-|o--o--o-o--o--o-|

 

 

|--3--|--|--3--| |--3--|--|--3--| |--3--|--|--3--|

C |X--------X--------|X--------X--------|X--X--X--X--X--X--|

H |---X--X-----X--X--|---X--X-----X--X--|------------------|

S |o--------o--------|o--------o--------|o--o--o--o--o--o--|

B |o--o--o--o--o--o--|o--o--o--o--o--o--|o--o--o--o--o--o--|

 

C |X---------------|----------------|

H |----X---X---X---|X---X---X---X---|

S |----o-------o---|----o-------o---|

B |o--o--o-o--o--o-|o--o--o-o--o--o-|

 

 

|--3--|--|--3--| |--3--|--|--3--| |--3--|--|--3--| |--3--|--|--3--|

C |X--------X--------|X--------X--------|X--X--X--X--X--X--|X--X--X--X--X--X--|

H |---X--X-----X--X--|---X--X-----X--X--|------------------|------------------|

S |o--------o--------|o--------o--------|o--o--o--o--o--o--|o--o--o--o--o--o--|

B |o--o--o--o--o--o--|o--o--o--o--o--o--|o--o--o--o--o--o--|o--o--o--o--o--o--|

 

|---repeat-3x----|

C |X---------------|

H |----X---X-------|

S |----o-------f---|

B |o--o--o-o--o----|

 

|---repeat-2x----|

H |x-X-x-X-x-X-x-X-|x-X-x-X-x-X-x-X-|

S |----------------|--------------o-|

B |o---o---o---o---|o---o---o---o---|

 

|---repeat-3x----|

H |x-X-x-X-x-X-x-X-|

S |----o--o----o---|

B |o---o---o---o---|

 

|---repeat-4x----||--3--|--|--3--|

C |----------------|----------------|----------------|X--X--X--X--X--X--|

H |X-X-X-X-X-X-X-X-|X-X-X-X-X-X-X-X-|X-X-X-X-X-X-X-X-|------------------|

S |----o-------o---|----o-------o--o|----o-------o---|---------o--o-----|

B |o--o--o-o--o----|o--o--o-o--o----|o--o--o-o--o----|o--o--o--o--o--o--|

 

|--3--|--|--3--|

C |X---X-----------|X---------------|X---------------|X--X--X--X--X--X--|

H |--------X---X---|----X---X---X---|----X-----------|------------------|

ht|----------------|----------------|------------oooo|------------------|

S |--------o-------|--------o-------|-------ooooo----|---------o--o--o--|

B |o---o---------o-|o---o---------o-|o---o-----------|o--o--o--o--o--o--|

 

|--3--|--|--3--|

C |X---X-----------|X---------------|X---------------|X--X--X--X--X--X--|

H |--------X---X---|----X---X---X---|----X---X---X---|------------------|

S |--------o-------|--------o-------|--------o---o---|---------o--o--o--|

B |o---o---------o-|o---o---------o-|o---o-----------|o--o--o--o--o--o--|

 

C |X---------------|X---------------|X---------------|X-------X-------|

H |--X-X-X-X-X-X-X-|--X-X-X-X-X-X-X-|--X-X-X-X-X-X-X-|--X-X-X---X-X-X-|

S |----o--o----o---|----o--o----o--o|----o--o----o---|----o-------o---|

B |o--o--o-o--o----|o--o--o-o--o----|o--o--o-o--o----|o--o--o-o--o----|

 

|--3--|--|--3--|

C |X---------------|X---------------|X---------------|X--X--X-----------|

H |--X-X-X-X-X-X-X-|--X-X-X-X-X-X-X-|--X-X-X-X-X-----|---------X--X--X--|

S |----o--o----o---|----o--o----o--o|----o-------oggg|---------o--o--o--|

B |o--o--o-o--o----|o--o--o-o--o----|o--o--o-o--o----|o--o--o--o--o--o--|

 

C |X---------------|

B |o---------------|

 

END

 

Return to my System of a Down drum tabs page

The Tablature is Copyright its respective owners.

Sign Up For My Newsletter
Subscribe | Unsubscribe

Site Map | Disclaimer | Privacy Policy | Media Kit | Submissions/Corrections

Website © 2000-2014 mattsmusicpage.com. All rights reserved.

Legal & DMCA: Matt's Music Page has been providing lyrics and tabs in a legal way, paying royalties each year to a few organizations. Then, all lyrics and tabs were removed from the site. Now, there's a new owner to the site, which purchased it August 26, 2014, and he is in negotiation to obtain licensing from BMI at the moment. If you have a specific DMCA request -- please do not hesitate to contact me via the contact button on top. I will do my very best to keep this site fully legal.

Get our toolbar!