Your One-Stop Source For
Music Lyrics
Bass and Guitar Tabs
and More...
Music Lyrics Bass and Guitar Tabs

 

The Tabs Are Below

Learn To Read Tab
Chords Handbook
Corrections & Additions
Get Official Tab
SOAD tabs @ 911Tabs

SONG: Cubert

BAND: System Of A Down

ALBUM: System Of A Down

TRANSCRIBED BY: Deftoneo42@aol.com

DATE: April 23, 2000

 

----------------------------------------------------------------------------------------------

 

TUNING: tune down one full step and then drop d (C,G,C,F,A,D)

 

 

 

INTRO: (with tremolo picking)

 

D|------|

A|------|

F|------|

C|------|

G|------|

C|--15--|

 

MAIN RIFF:

 

D|------------------|

A|------------------|

F|------------------|

C|------------------|

G|--55555555555555--|

C|--55555555555555--|

pm............

 

VERSE:

 

D|----------------------|

A|----------------------|

F|----------------------|

C|--7-5-----------------|

G|------7-6-5555555555--|

C|----------5555555555--|

 

CHORUS:

 

D|---------------------------|

A|---------------------------|

F|---------------------------|

C|---------------------------|

G|--7-9-7-8-5-5-6-4-5-3-4-2--|

C|--7-9-7-8-5-5-6-4-5-3-4-2--|

 

BRIDGE:

 

D|------------------------------------------|

A|------------------------------------------|

F|------------------------------------------|

C|------------------------------------------|

G|--444444444-44444444-55555555-5555555555--|

C|--444444444-44444444-55555555-5555555555--|

 

 

Return to my System of a Down tabs page

The Tablature is Copyright its respective owners.

Sign Up For My Newsletter
Subscribe | Unsubscribe

Site Map | Disclaimer | Privacy Policy | Media Kit | Submissions/Corrections

Website © 2000-2014 mattsmusicpage.com. All rights reserved.

Legal & DMCA: Matt's Music Page has been providing lyrics and tabs in a legal way, paying royalties each year to a few organizations. Then, all lyrics and tabs were removed from the site. Now, there's a new owner to the site, which purchased it August 26, 2014, and he is in negotiation to obtain licensing from BMI at the moment. If you have a specific DMCA request -- please do not hesitate to contact me via the contact button on top. I will do my very best to keep this site fully legal.

Get our toolbar!