Your One-Stop Source For
Music Lyrics
Bass and Guitar Tabs
and More...
Music Lyrics Bass and Guitar Tabs

 

The Tabs Are Below

Learn To Read Tab
Chords Handbook
Corrections & Additions
Get Official Tab
SOAD tabs @ 911Tabs

ragesystemnirvanametallica (Saif Mehdi)

Band: System Of A Down

Album: Steal This Album!

Song: Chic 'n' Stu

Tuning: CGCFAD

 

 

Intro/Pre-Verse

|------------

|-14-14-14-14

|-12-12-12-12

|------------

|------------

|------------

 

Verse

|------------------------

|------------------------

|------------------------

|------------------------

|-11h12-11-12-11-12-11-12

|-11h12-11-12-11-12-11-12

 

Pre-Chorus

|------------------------------------------

|------------------------------------------

|------------------------------------------

|----11-12-14-12-11-12-14-12-11-12-14-12-11

|-11---------------------------------------

|-11---------------------------------------

p.m. .. .. .. .. .. .. .. .. .. .. .. .. ..

 

|---------------------------------------------

|---------------------------------------------

|---------------------------------------------

|---------------------------------------------

|-11--11-12-11--11-12-11--11-12-11-12-11-12-11

|-11--11-12-11--11-12-11--11-12-11-12-11-12-11

 

Chorus

|---------------------------------------------

|---------------------------------------------

|---------------------------------------------

|---------------------------------------------

|-11--11-12-11--11-12-11--11-12-11-12-11-12-11

|-11--11-12-11--11-12-11--11-12-11-12-11-12-11

 

Interlude

|-----10---------------------------------------------|-----10----------------------------------------------

|---8------------------------------------------------|---8-------------------------------------------------

|-8--------------------------------------------------|-8---------------------------------------------------

|----------------------------------------------------|-----------------------------------------------------

|--------11--11-0-11--11-0-11--11-0-11-0-11-0-11-----|---------11--11-12-11--11-12-11--11-12-11-12-11-12-11

|--------11--11-0-11--11-0-11--11-0-11-0-11-0-11-----|---------11--11-12-11--11-12-11--11-12-11-12-11-12-11

 

|-----10-|-----10-----8-----10-----8----10--10-11-10-11-10-11-10-11-

|---8----|---8-----6-----8------6-----8-----------------------------

|-8------|-8-----6-----8------6-----8-------------------------------

|--------|----------------------------------------------------------

|--------|----------------------------------------------------------

|--------|----------------------------------------------------------

 

Order:

Intro/Pre-Verse

Verse

Pre-Chorus

Chorus

Pre-Verse

Verse

Pre-Chorus

Chorus

Interlude

Verse

Pre-Chorus

Chorus

 

Kick ass song by System Of A Down.

 

 

Return to my System of a Down tabs page

The Tablature is Copyright its respective owners.

Sign Up For My Newsletter
Subscribe | Unsubscribe

Site Map | Disclaimer | Privacy Policy | Media Kit | Submissions/Corrections

Website © 2000-2014 mattsmusicpage.com. All rights reserved.

Legal & DMCA: Matt's Music Page has been providing lyrics and tabs in a legal way, paying royalties each year to a few organizations. Then, all lyrics and tabs were removed from the site. Now, there's a new owner to the site, which purchased it August 26, 2014, and he is in negotiation to obtain licensing from BMI at the moment. If you have a specific DMCA request -- please do not hesitate to contact me via the contact button on top. I will do my very best to keep this site fully legal.

Get our toolbar!

 

Starbucks You Are Here Coffee Mug/Cup KENTUCKY - Horses, Banjo, Blue, White
$19.99
Starbucks You Are Here Coffee Mug/Cup KENTUCKY - Horses, Banjo, Blue, White picture


KNOWLES ROCKWELL HERITAGE "THE BANJO PLAYER" FIRST EDITION 1989 PLATE COA
$5.99
KNOWLES ROCKWELL HERITAGE


Vintage Postcard 1981 Disney World Banjo Kings Main Street USA 1981 Postmark
$4.99
 Vintage Postcard 1981 Disney World Banjo Kings Main Street USA 1981 Postmark picture


Banjo Barometer With Thermometer Hygrometer 490mm
$84.76
Banjo Barometer With Thermometer Hygrometer 490mm picture


ANTIQUE JAPANESE NIPPON FIGURINE SET OF 3 WOMEN GEISHA PLAYING DRUM BANJO FAN
$24.0
ANTIQUE JAPANESE NIPPON FIGURINE SET OF 3 WOMEN GEISHA PLAYING DRUM BANJO FAN picture