Your One-Stop Source For
Music Lyrics
Bass and Guitar Tabs
and More...
Music Lyrics Bass and Guitar Tabs

 

The Tabs Are Below

Learn To Read Tab
Chords Handbook
Corrections & Additions
Get Official Tab
SOAD tabs @ 911Tabs

song name: Toxicity

album name: Toxicity

song by: System of a Down

tab from: ^gum (gum@most-wanted.com)

 

 

riff I

 

G||---------------------------------||

D||---------------------------------||

A||---------------------------------||

E||---------------------------------||

B||---1--43131----9*------8*--------||

 

G|-----------------------------------------------------|

D|-----------------------------------------------------|

A|-----------------------------------------------------|

E|-----------------------------------------------------|

B|----431311--431311--431311--431311-----9*------8*----|

end riff I

G|-----------------------------------|

D|-----------------------------------|

A|-----------------------------------|

E|-----------------------------------|

B|---1------43131----9*------8*------|

 

G|------------------------------------------|

D|------------------------------------------|

A|------------------------------------------|

E|------------------------------------------|

B|--1--1--11--1--1--11--4--4--44--4--4--44--|

 

riff II end riff II riff III

G|------------------------------------------------------------------|

D|------------------------------------------------------------------|

A|------------------------------------------------------------------|

E|----------------------6-6-6--6-6---------------------------6-6-6--|

B|-1--1--11--1--1--11--4-4-4--4-4-44----1--1--11--1--1--11--4-4-4---|

 

end riff III x2

G|----------------------------------------------------|

D|----------------------------------------------------|

A|----------------------------------------------------|

E|---6-6-6------------------------------6-6-6--6-6----|

B|--4-4-4----------1--1--11--1--1--11--4-4-4--4-4-44--|

riff III x2

 

riff I

 

riff III x3

riff II

riff III x3

 

riff I

 

G||------------------------------------------------------||

D||------------------------------------------------------||

A||------------------------------------------------------||

E||------------------------------------------------------||

B||---431111--431111--431111--431111------1--111--4313~--||

 

F||------------------------------------||

C||------------------------------------||

G||------------------------------------||

C||------------------------------------||

B||---431111--431111--431111--431111---||

 

G||-----------------------------------||

D||-----------------------------------||

A||-----------------------------------||

E||-----------------------------------||

B||---1--1-1--4313~---1-1111--4313~---||

 

 

and there you go(i think)...

Return to my System of a Down bass tabs page

The Tablature is Copyright its respective owners.

Sign Up For My Newsletter
Subscribe | Unsubscribe

Site Map | Disclaimer | Privacy Policy | Media Kit | Submissions/Corrections

Website © 2000-2014 mattsmusicpage.com. All rights reserved.

Legal & DMCA: Matt's Music Page has been providing lyrics and tabs in a legal way, paying royalties each year to a few organizations. Then, all lyrics and tabs were removed from the site. Now, there's a new owner to the site, which purchased it August 26, 2014, and he is in negotiation to obtain licensing from BMI at the moment. If you have a specific DMCA request -- please do not hesitate to contact me via the contact button on top. I will do my very best to keep this site fully legal.

Get our toolbar!

 

Hard Rock Pin Las Vegas 4th of july red white and blue guitar
$5.0
Hard Rock Pin Las Vegas 4th of july red white and blue guitar picture


Hard Rock Pin Hollywood Fl Bell Girl with dice luggage and guitar
$5.0
Hard Rock Pin Hollywood Fl Bell Girl with dice luggage and guitar picture


Hard Rock Pin Las Vegas King of Clubs Guitar rare only 3 lines of info on back
$5.0
Hard Rock Pin Las Vegas King of Clubs Guitar rare only 3 lines of info on back picture


Hard Rock Pin Edmonton guitar pin
$5.0
Hard Rock Pin Edmonton guitar pin picture


Lladro Guitar Boy #4614 - Beautiful Piece of Lladro
$109.0
Lladro Guitar Boy #4614 - Beautiful Piece of Lladro picture